Oops, an error
Loading. Please wait.

Overvecht Tab

560 views 15 this week
no commentswrite comment
1 2 3 4 5
2 more votes to show rating
add to favorites
launch autoscroll
font size
0
reset
how to read this tab
guitar tuner
Autoscroll
slow
fast
+/-
esc
set tempo
stop
Help us to improve Ultimate-Guitar.com Take our survey!
×
Author
Difficulty
Capo
intermediate
7th fret
Key: G 
Capo: 7
3/4

   G                                     C      G     Em
e|----------------------3-----|----------------------------|
B|-3------3------3------3-----|-3--------1------3-----0----|
G|-0-0-0--0-0-0--0-0-0--0-0-0-|-0-0-0----0-0-0--0-0-0-0-0-0|
D|---0-0----0-0----0-0----0-0-|---0-0------2-2----0-0---2-2|
A|----------------------------|----------3-----------------|
E|-3------3------3------3-----|-3---------------3-----0----|
                               Donderdag avond, grote genade

   Dsus4  D      Asus2 A        C      G      Am  /b  C  
e|-3------2------------------|-----------------------------|
B|---0-0----3-3--0-----2-----|-1------3------1-------1-----|
G|---0-0----2-2----2-----2-2-|-0-0-0--0-0-0--2-2-----0-0-0-|
D|-2------0----------2---2-2-|---2-2----0-0----2-------2-2-|
A|---------------0-----0-----|-3-------------0---0h2-3-----|
E|---------------------------|--------3--------------------|
                   
   G      B 
e|---------------------|
B|-3------4------4-----|
G|-0-0-0--4-4-4--4-4-4-|
D|---0-0----4-4----4-4-|
A|--------2------2-----|
E|-3-------------------|

   Em7*   C      G      D       Bmadd13-  Em7    Am
e|-3------0------3------2-----|----2------0--------------|
B|-0-0-0--1-1-1--0-0-0--3-2-2-|---3--3-3--3-3-3--1p0-----|
G|---0-0----0-0----0-0----3-3-|--0---0-0----0-0------2-2-|
D|----------------------0-----|----------------------2-2-|
A|-2------3-------------------|-2---------2------0-------|
E|---------------3------------|--------------------------|
   Wie...

   F      C      A      C      G   G/C G
e|---------------------------------------|
B|-1------1------2------1------0---0h1-0-|
G|---2-2--0-0-0----2-2--0-2-2--0---------|
D|---3-3----2-2----2-2----2-2------0h2-0-|
A|--------3------0------3----------------|
E|-1---------------------------3---------|



G        C       
Donderdagavond
G     Em 
Grote genade
Dsus4         D
Bang voor van alles
   A7sus2      A   
En hoe het zal gaan
C            G
Kijk naar de kinderen
Em               Am           C
Misschien op een dag zijn ze oud
G
Zijn het vreemden
     B
En net zo alleen

Em7*          C
Wie telt de dagen
G              D
Wie geeft hun jaren
Bmadd13-       Em7
De zomers, de tranen
    Am7
Een fluisterend lied
F           C     A
Zo zal het gaan, zeker
     C      G    G/C 
Maar nu nog niet

Donderdagavond
Zwijgende moeder
Zo zijn de mensen 
En zo draait het wiel
Straks is het oorlog
En kijk; dat ben jij op een dag
Met in je armen
Je kleine soldaat

Wie leest zijn brieven
Wie kent de namen
Geschreven in het as
Dat het vuur achterliet
Duisternis valt, zeker
Maar nu nog niet

Donderdagavond 
Schaduw van vroeger
Wat ben ik schuldig
Wat krijg je van mij?
Drink op degene
Die wel wisten hoe
Op geluk, en succes
Het is ze allemaal gegund

Drink op de vrienden
Die langzaam verdwaalden
Het kustlicht te ver
En de toverspreuk kwijt
Dan wordt het stil, zeker
Maar er is nog wat tijd


         EADGBE
G        3x0033
C        x30210
Em       022000
Dsus4    xx2003
D        xx0232
Asus2    x02200
A        x0222x
Am       x0221x
B        x2444x
Em7*     x22003
Bmadd13- x2x032
Em7      x2x030
F        133211
G/C      3x201x
Suggest correction
Give kudos to tab author, rate the tab!
1 2 3 4 5
comments
print report bad tab
guest
You may want to rate the tab now too:
select rating
Wanna post a correction for this tab? Suggest correction