Oops, an error
Loading. Please wait.

Hey Jane Tab

4,615 views 9 this week
no commentswrite comment
1 2 3 4 5
x 4
add to favorites
launch autoscroll
font size
0
reset
how to read this tab
guitar tuner
Autoscroll
slow
fast
+/-
esc
set tempo
stop
Help us to improve Ultimate-Guitar.com Take our survey!
×
Author
Difficulty
novice
Hey Jane - Guitar Chords/Tab


(listen for the strumming)

Intro:

D

-2-2-2-2-0-0--2-2-2-2---------------------------|
-3-3-3-3-3-3--3-3-3-3---------------------------|
-2-2-2-2-0-0--2-2-2-2---------------------------|
-0-0-0-0-0-0--0-0-0-0---------------------------|
------------------------------------------------|
------------------------------------------------|


Verse:

D
Hey jane......

A
Ain't got time...

E
Ain't got time...

(repeat until)---

G
With you....

Show 'em watcha can do!
(repeat)


(-D- Higher octave bit)

--------------------------------|
--15--15--15--15----------------|
--------------------------------|
--12--12--12--12----------------|
--------------------------------|
--------------------------------|

(Lead Guitar)

------------------------------------------------------------|
------------------------------------------------------------|
-2--/14--16--11--2--/14--16--11--2--/12--14--9---2--/9------|
------------------------------------------------------------|
------------------------------------------------------------|
------------------------------------------------------------|


(Other lead bit - other voices - Doggen)

---------------------------------------------|
--------1----------------1-------------------|
----2------2---------2-----2------0h2--------|
--0--0-------------0--0---------0------------|
---------------------------------------------|
---------------------------------------------|

(little lead bit)

---------------------------------------------|
---------------------------------------------|
-----14----12---11----9---7------------------|
-00------0----0----0----0--------------------|
---------------------------------------------|
---------------------------------------------|

Intro-y bit for the "HEY JANE WHERE YA GOIN TODAY"

(chaos)

After the crazy bit:

Key change: A Major :mrgreen: (Improvisey Jam section)

A


(Other voices - Coxon bit)

-----------------------------------------|
-----------------------------------------|
-14-14--12-h-14-14-14-14-14--------------|
-14-14--12-h-14-14-14-14-14--------------|
-----------------------------------------|
-----------------------------------------|


(Doggen - Lead)


-------------------------------------------|
-------------------------------------------|
-------------------------------------------|
-2--/14--16--11--12-----7--6---------------|
-------------------------------------------|
-------------------------------------------|

(Sometimes Jase will do somethin' like this)

-------------------------------------------------------|
-------------------------------------------------------|
-------------------------------------------------------|
---14--12--11--12-------14--12--11--9--(7)-------------|
-0--------------------0--------------------------------|
-------------------------------------------------------|

A

(----)
(-2--)
(-2--)
(-2--)
(-0--)
(----)

^Sweet Heart.. Sweet Light

(---)
(-3-)
(-2-)
(-2-)
(-0-)
(---)

^Sweet Heart..

(-0--)
(-0--)
(-2--)
(-2--)
(-0--)
(----)

^Love of my...

End on: A

:D

it's something like it!
Suggest correction
comments
print report bad tab
guest
You may want to rate the tab now too:
select rating
Wanna post a correction for this tab? Suggest correction