Oops, an error
Loading. Please wait.

Lay It Down Slow Chords

version 2
version 2

Whole song

10,528 views 30 this week
no commentswrite comment
1 2 3 4 5
excellent!
x 12
add to favorites
launch autoscroll
font size
0
reset
transpose
0
reset
- display chords -
guitar tuner
Tab Pro tools
  • play this tab
  • loop segment
  • change instrument
  • show fretboard
  • metronome
Autoscroll
slow
fast
+/-
esc
set tempo
stop
-------------------------------------------------------------------------------
                             Lay It Down Slow - Spiritualised
-------------------------------------------------------------------------------
Tabbed by:BartC (Lanaken)


Intro:
B      A  E       B      A  E      
E


            E
if you got dreams in your heart
              F#m
why don't you share them with me?
        B
and if dreams don't come true
          A
i'll make sure that your nightmares
     E            A  E
are through


           E                   A   E
if you got pain in your heart
              F#m
why don't you share it with me?
          B
and we'll just wait and see
         A                       E        A  E
if it's half what it used to be


                C#m   B
and lay it down slow
            E        A  E
lay it down free
             F#m      B
lay it down easy
     E            A  E
but lay it on me

               E
if you've got love in your heart
              F#m
why don't you keep it with mine?
         B                    A
i can't promise a miracle
                            E     A    E
but i'll always be trying


                C#m   B
and lay it down slow
            E         A  E
lay it down free
             F#m       B
lay it down easy
     E                 A  E
but lay it on me


            F#m        B
lay it down easy
              E        A  E
lay it on me

            F#m        B
lay it down easy
                E      A  E
but lay it on me

Solo:

e|-------------------------------------------------------|
B|-------------------------------------------------------|
G|-------------------------------------------------------|
D|----------11------11-----------------------------------|
A|--11--14------14-------11/9-------9--7-----7-----------|
E|----------------------------------------9--------------|


e|-------------------------------------------------------|
B|-------------------------------------------------------|
G|-------------------------------------------------------|
D|----------11------11---------11------------------------|
A|--11--14------14-------11/9---------9--7-----7---------|
E|------------------------------------------9------------|
comments
print report bad tab
I want to post or [tab]
guest
You may want to rate the tab now too:
select rating
Please do not post tabs as comments. Select "correction" instead!