Oops, an error
Loading. Please wait.

All I Wanna Do Tab

73 views 1 this week
no commentswrite comment
1 2 3 4 5
3 more votes to show rating
add to favorites
launch autoscroll
font size
0
reset
how to read this tab
guitar tuner
Autoscroll
slow
fast
+/-
esc
set tempo
stop
Help us to improve Ultimate-Guitar.com Take our survey!
×
Author
Difficulty
intermediate
All I Wanna Do by Splashh
Tabbed by: beachfossils
Tuning: Standard EADGBe

Repeat chords as necessary throughout, strumming pattern is easy enough to follow.


[Intro]

Guitar 1:
E|-----------------|
B|--5----3----1----|
G|--5----3----2----|
D|--x----x----3----|
A|--3----3---------|
E|-----------------|

Guitar 2 (x1):
E|----------------------|
B|----------------------|
G|--14b--14--12--10--9--|
D|----------------------|
A|----------------------|
E|----------------------|


[Verse A]

Guitar 1:
E|-----------------|
B|--5----3----1----|
G|--5----3----2----|
D|--x----x----3----|
A|--3----3---------|
E|-----------------|


[Chorus A]

Guitar 1:
E|------------7----3--|
B|--5---------8----3--|
G|--5----7----9----4--|
D|--7----5----9----5--|
A|--0----x----7----5--|
E|-------0---------3--|

E|-----------------|
B|--5----3----1----|
G|--5----3----2----|
D|--x----x----3----|
A|--3----3---------|
E|-----------------|

Guitar 2 (x1):
E|--------------------|
B|--------------------|
G|--12/15--14--14/17--|
D|--------------------|
A|--------------------|
E|--------------------|


[Verse B]

Guitar 1:
E|-----------------|
B|--5----3----1----|
G|--5----3----2----|
D|--x----x----3----|
A|--3----3---------|
E|-----------------|

Guitar 2 (x1):
E|-----------------------|
B|-----------------------|
G|--14b--14--12--10--9---|
D|-----------------------|
A|-----------------------|
E|-----------------------|


[Chorus B]

Guitar 1:
E|------------7----3--|
B|--5---------8----3--|
G|--5----7----9----4--|
D|--7----5----9----5--|
A|--0----x----7----5--|
E|-------0---------3--|


[Outro]

Guitar 1 (x2):
E|---------------------------------------------------------|
B|---------------------------------------------------------|
G|--5--5--5--5--5--7--9\7--5--7--5--5--5--5--5--5--7--9\5--|
D|----------------------------7--5-------------------------|
A|---------------------------------------------------------|
E|---------------------------------------------------------|

Guitar 2 (x1):

E|--------------------|
B|--------------------|
G|--12/15--14--14/17--|
D|--------------------|
A|--------------------|
E|--------------------|

************************************

| /   slide up
| \   slide down
| x   mute note

************************************
Suggest correction
Give kudos to tab author, rate the tab!
1 2 3 4 5
comments
print report bad tab
guest
You may want to rate the tab now too:
select rating
Wanna post a correction for this tab? Suggest correction