Oops, an error
Loading. Please wait.

Clumsy Bass Tab

28 views 3 this week
no commentswrite comment
1 2 3 4 5
3 more votes to show rating
add to favorites
launch autoscroll
font size
0
reset
guitar tuner
Autoscroll
slow
fast
+/-
esc
set tempo
stop
Help us to improve Ultimate-Guitar.com Take our survey!
×
Author
Difficulty
novice
Bass Start - 00:19


[Intro]

G|---------------------|-----------------|-----------------|
D|---------------------|-----------------|-----------------|
A|---------------------|-5-5-5-5-5-5-5-5-|-3-3-3-3-3-3-3-3-|
E|-1-1-1-1-1-1-1-1-1-1-|-----------------|-----------------|


G|-----------------|-----------------|-----------------|-----------------|
D|-----------------|-----------------|-----------------|-1-1-1-1-1-1-1-1-|
A|-----------------|-----------------|-1-1-1-1-1-1-1-1-|-----------------|
E|-1-1-1-1-1-1-1-1-|-1-1-1-1-1-1-1-1-|-----------------|-----------------|


[Verse 1]

G|-1-1-1-1---------|-----------------|-----------------|-----------------|
D|-----------------|-----------------|-----------------|-----------------|
A|-----------------|-----------------|-5-5-5-5-5-5-5-5-|-3-3-3-3-3-3-3-3-|
E|---------1-1-1-1-|-1-1-1-1-1-1-1-1-|-----------------|-----------------|


G|-----------------|-----------------|-----------------|-----------------|
D|-----------------|-----------------|-----------------|-1-1-1-1-1-1-1-1-|
A|-----------------|-----------------|-1-1-1-1-1-1-1-1-|-----------------|
E|-1-1-1-1-1-1-1-1-|-1-1-1-1-1-1-1-1-|-----------------|-----------------|


G|-1-1-1-1-1-1-1-1-|-1-1-1-1-1-1-1-1-|-----------------|-----------------|
D|-----------------|-----------------|-1-1-1-1-1-1-1-1-|-1-1-1-1-1-1-1-1-|
A|-----------------|-----------------|-----------------|-----------------|
E|-----------------|-----------------|-----------------|-----------------|


G|-1-1-1-1-1-1-1-1-|-1-1-1-1-1-1-1-1-|---------0--3--|-5-5-5-3-5-------|
D|-----------------|-----------------|-1-1-1-1-------|-----------5-----|
A|-----------------|-----------------|---------------|-------------6-6-|
E|-----------------|-----------------|---------------|-----------------|


G|-----------------|-----------------|
D|-----------------|-----------------|
A|-----------------|-----------------|
E|-6-6-6-6-6-6-6-6-|-6-6-6-6-6-6-6-6-|


[Chorus]

G|-----------------|-----------------|-----------------|-------------|
D|-----------------|-----------------|-----------------|-------------|
A|-6-6-6-6-6-6-6-6-|-----------------|-6-6-6-6-6-6-6-6-|-------------|
E|-----------------|-4-4-4-4-4-4-4-4-|-----------------|-3--3--4--4--|


G|-----------------|-----------------|-----------------|-----------------|
D|-----------------|-----------------|-----------------|-----------------|
A|-----------------|-----0-0-1-1-2-2-|-3-3-3-3-3-3-3-3-|-3-3-3-3-3-3-----|
E|-1-1-1-1-1-1-1-1-|-1-1-------------|-----------------|-------------3-2-|


[Verse 2]

G|-----------------|-----------------|-----------------|-----------------|
D|-----------------|-----------------|-----------------|-----------------|
A|-----------------|-----------------|-5-5-5-5-5-5-5-5-|-3-3-3-3-3-3-3-3-|
E|-1-1-1-1-1-1-1-1-|-1-1-1-1-1-1-1-1-|-----------------|-----------------|


G|-----------------|-----------------|-----------------|-----------------|
D|-----------------|-----------------|-----------------|-1-1-1-1-1-1-1-1-|
A|-----------------|-----------------|-1-1-1-1-1-1-1-1-|-----------------|
E|-1-1-1-1-1-1-1-1-|-1-1-1-1-1-1-1-1-|-----------------|-----------------|


G|-1-1-1-1-1-1-1-1-|-1-1-1-1-1-1-1-1-|-----------------|-----------------|
D|-----------------|-----------------|-1-1-1-1-1-1-1-1-|-1-1-1-1-1-1-1-1-|
A|-----------------|-----------------|-----------------|-----------------|
E|-----------------|-----------------|-----------------|-----------------|


G|-1-1-1-1-1-1-1-1-|-1-1-1-1-1-1-1-1-|-----------------|-----------------|
D|-----------------|-----------------|-1-1-1-1-1-1-1-0-|-----------------|
A|-----------------|-----------------|-----------------|-3-3-3-3-3-3-3-3-|
E|-----------------|-----------------|-----------------|-----------------|


G|-----------------|-----------------|
D|-----------------|-----------------|
A|-----------------|-----------------|
E|-6-6-6-6-6-6-6-6-|-6-6-6-6-6-6-6-6-|


[Chorus]

G|-----------------|-----------------|-----------------|-------------|
D|-----------------|-----------------|-----------------|-------------|
A|-6-6-6-6-6-6-6-6-|-----------------|-6-6-6-6-6-6-6-6-|-------------|
E|-----------------|-4-4-4-4-4-4-4-4-|-----------------|-3--3--4--4--|


G|-----------------|-----------------|-----------------|-----------------| 
D|-----------------|-----------------|-----------------|-----------------|
A|-----------------|-----0-0-1-1-2-2-|-3-3-3-3-3-3-3---|-3-3-3---3---3---|
E|-1-1-1-1-1-1-1-1-|-1-1-------------|---------------3-|-------3---3---3-|


G|-----------------|-----------------|-----------------|-----------------| 
D|-----------------|-----------------|-----------------|-----------------|
A|-----------------|-----0-0-1-1-2-2-|-3-3-3---3-3-3---|-3-3-3---3-3-3---|
E|-1-1-1-1-1-1-1-1-|-1-1-------------|-------3-------3-|-------3-------3-|


[Instrumental]

G|-----------------|-----------------|-----------------|-----------------|
D|-----------------|-----------------|-----------------|-----------------|
A|-----------------|-----------------|-5-5-5-5-5-5-5-5-|-3-3-3-3-3-3-3-3-|
E|-1-1-1-1-1-1-1-1-|-1-1-1-1-1-1-1-1-|-----------------|-----------------|


G|-----------------|-----------------|-----------------|-----------------|
D|-----------------|-----------------|-----------------|-1-1-1-1-1-1-1-1-|
A|-----------------|-----------------|-1-1-1-1-1-1-1-1-|-----------------|
E|-1-1-1-1-1-1-1-1-|-1-1-1-1-1-1-1-1-|-----------------|-----------------|


G|-----------------|-----------------|-----------------|-----------------|
D|-----------------|-----------------|-----------------|-----------------|
A|-----------------|-----3-3-4-4-5-5-|-6-6-6-6-6-6-6-6-|-6-6-4-4-3-3-----|
E|-4-4-4-4-4-4-4-4-|-4-4-------------|-----------------|-------------6-6-|


G|-----------------|-----------------|-----------------|-5-5-5---------|
D|-----------------|-----------------|---------5-5-8-8-|-------8-5-----|
A|-----------------|-----3-3-4-4-5-5-|-6-6-6-6---------|------------6--|
E|-4-4-4-4-4-4-4-4-|-4-4-------------|-----------------|---------------|


G|-----------------|-----------------|
D|-----------------|-----------------|
A|-----------------|-----------------|
E|-6-6-6-6-6-6-6-6-|-6-6-6-6-6-6-6-6-|


[Chorus]

G|-----------------|-----------------|-----------------|-------------|
D|-----------------|-----------------|-----------------|-------------|
A|-6-6-6-6-6-6-6-6-|-----------------|-6-6-6-6-6-6-6-6-|-------------|
E|-----------------|-4-4-4-4-4-4-4-4-|-----------------|-3--3--4--4--|


G|-----------------|-----------------|-----------------|-----------------|
D|-----------------|-----------------|-----------------|-----------------|
A|-----------------|-----0-0-1-1-2-2-|-3-3-3-3-3-3-3-3-|-3-3-3---3---3---|
E|-1-1-1-1-1-1-1-1-|-1-1-------------|-----------------|-------3---3---3-|


G|-----------------|-----------------|-----------------|-----------------|
D|-----------------|-----------------|-----------------|-----------------|
A|-----------------|-----0-0-1-1-2-2-|-3-3-3-3-3-3-3---|-3-3-3---3---3---|
E|-1-1-1-1-1-1-1-1-|-1-1-------------|---------------3-|-------3---3---3-|


G|-----------------|-----------------|-----------------|-----------------|
D|-----------------|-----------------|-----------------|-----------------|
A|-----------------|-----0-0-1-1-2-2-|-3-3-3---3-3-3---|-3-3-3---3---3---|
E|-1-1-1-1-1-1-1-1-|-1-1-------------|-------3-------3-|-------3---3---3-|


G|-----------------|-----------------|-----------------|----------------|
D|-----------------|-----------------|-----------------|----------------|
A|-----------------|-----0-0-1-1-2-2-|-3-3-3---3-3-3---|-3-3-3-3-3-3-3/-|
E|-1-1-1-1-1-1-1-1-|-1-1-------------|-------3-------3-|----------------|


[Outro]

G|-----------------|-----------------|-----------------|-----------------| (x2)
D|-----------------|-----------------|-----------------|-----------------|
A|-6-6-6-6-6-6-6-6-|-6-6-6-6-6-6-6-6-|-6-6-6-6-6-6-6-6-|-6-6-6-6-6-6-6-6-|
E|-----------------|-----------------|-----------------|-----------------|


G|-----------------|-----------------|-----------------|-----------------| (x2)
D|-----------------|-----------------|-----------------|-----------------|
A|-6-6-6-6-6-6-6-6-|-----------------|-6-6-6-6-6-6-6-6-|-----------------|
E|-----------------|-4-4-4-4-4-4-4-4-|-----------------|-4-4-4-4-4-4-4-4-|


G|-----------------|-----------------|-----------------|-----------------|
D|-----------------|-----------------|-----------------|-----------------|
A|-6-6-6-6-6-4-----|-----------------|-6-6-6-6-6-4-----|-----------------|
E|-------------6-5-|-6-6-6-6-6-6-6-6-|-------------6-5-|-6-6-6-6-6-6-6-6-|

                                                               (fade out)
G|-----------------|-----------------|-----------------|-----------------|
D|-----------------|-----------------|-----------------|-----------------|
A|-6-6-6-6-6-4-----|-----------------|-6-6-6-6-----6-6-|-6-6-6-6-----6-6-|
E|-------------6-5-|-6-6-6-6-6-6-6-6-|---------6-6-----|---------6-6-----|



**************************

| / slide up

**************************

in regular sequence!
Suggest correction
Give kudos to tab author, rate the tab!
1 2 3 4 5
comments
print report bad tab
guest
You may want to rate the tab now too:
select rating
Wanna post a correction for this tab? Suggest correction