Oops, an error
Loading. Please wait.

Wail Bass Tab

10 views 1 this week
no commentswrite comment
1 2 3 4 5
2 more votes to show rating
add to favorites
launch autoscroll
font size
0
reset
guitar tuner
Autoscroll
slow
fast
+/-
esc
set tempo
stop
Help us to improve Ultimate-Guitar.com Take our survey!
×
Author
Difficulty
novice
[Intro]

G|-----------------|-----------------|-----------------|-----------------|
D|-----------------|-----------------|-----------------|-----------------|
A|-----------------|-----------------|-----------------|-----------------|
E|-1-1-1-1-1-1-1-1-|-1-1-1-1-1-1-1-1-|-1-1-1-1-1-1-1-1-|-1-1-1-1-1-1-1-1-|


[Verse 1]

G|-----------------|-----------------|-----------------|-----------------| 
D|-----------------|-----------------|-----------------|-----------------|
A|-----------------|-----------------|-----------------|-----------------|
E|-1-1-1-1-1-1-1-1-|-1-1-1-1-1-1-1-1-|-1-1-1-1-1-1-1-1-|-1-1-1-1-1-1-1-1-|(x4)


[Chorus]

G|-----------------|-----------------|-----------------|-----------------|
D|-----------------|-----------------|-----------------|-----------------|
A|-3-3-3-3-5-5-5-5-|-6-6-6-6-5-5-5-5-|-3-3-3-3-5-5-5-5-|-6-6-6-6-5-5-5-5-|
E|-----------------|-----------------|-----------------|-----------------|


G|-----------------|-----------------|-----------------|-----------------|
D|-----------------|-----------------|-----------------|-----------------|
A|-3-3-3-3-5-5-5-5-|-6-6-6-6-5-5-5-5-|-3-3-3-3-5-5-5-5-|-6-6-6-6-5-5-5-\-|
E|-----------------|-----------------|-----------------|-----------------|


[Verse 2]

G|-----------------|-----------------|-----------------|-----------------| 
D|-----------------|-----------------|-----------------|-----------------|
A|-----------------|-----------------|-----------------|-----------------|
E|-1-1-1-1-1-1-1-1-|-1-1-1-1-1-1-1-1-|-1-1-1-1-1-1-1-1-|-1-1-1-1-1-1-1-1-|(x4)


[Chorus]

G|-----------------|-----------------|-----------------|-----------------|
D|-----------------|-----------------|-----------------|-----------------|
A|-3-3-3-3-5-5-5-5-|-6-6-6-6-5-5-5-5-|-3-3-3-3-5-5-5-5-|-6-6-6-6-5-5-5-5-|
E|-----------------|-----------------|-----------------|-----------------|


G|-----------------|-----------------|-----------------|-----------------|
D|-----------------|-----------------|-----------------|-----------------|
A|-3-3-3-3-5-5-5-5-|-6-6-6-6-5-5-5-5-|-3-3-3-3-5-5-5-5-|-6-6-6-6-5-5-5-5-|
E|-----------------|-----------------|-----------------|-----------------|


[Bridge]

G|------|-------------------------|--------------------------------|
D|------|-------------------------|--------------------------------|
A|-3-\--|--3-3-4-5--5-4-4-3-3-4-4-|-5-5-4-4-3-3-4-5--5-4-4-3-3-4-4-|
E|------|-------------------------|--------------------------------|


G|--------------------------------|--------------------------------|
D|--------------------------------|--------------------------------|
A|-9-9-8-8-7-7-8-9--9-8-8-7-7-8-8-|-9-9-8-8-7-7-8-9--9-8-8-7-7-8-\-|
E|--------------------------------|--------------------------------|


G|------------------------------|--------------------------------|
D|------------------------------|--------------------------------|
A|---4-4-3-3-4-5--5-4-4-3-3-4-4-|-5-5-4-4-3-3-4-5--5-4-4-3-3-4-4-|
E|------------------------------|--------------------------------|


G|-----------------|-------------------|--------------------------|
D|-----------------|-------------------|--------------------------|
A|-----------------|-----------9-10-11-|-11-11-11-11-11-10-----\--|
E|-4-4-4-4-4-4-4-4-|-4-4-4-4-4---------|--------------------------| * \ : very slowly


[Verse 3]

G|-----------------|-----------------|-----------------|-----------------| 
D|-----------------|-----------------|-----------------|-----------------|
A|-----------------|-----------------|-----------------|-----------------|
E|-1-1-1-1-1-1-1-1-|-1-1-1-1-1-1-1-1-|-1-1-1-1-1-1-1-1-|-1-1-1-1-1-1-1-1-|(x4)


[Chorus]

G|-----------------|-----------------|-----------------|-----------------|
D|-----------------|-----------------|-----------------|-----------------|
A|-3-3-3-3-5-5-5-5-|-6-6-6-6-5-5-5-5-|-3-3-3-3-5-5-5-5-|-6-6-6-6-5-5-5-5-|
E|-----------------|-----------------|-----------------|-----------------|


G|-----------------|-----------------|-----------------|-----------------|
D|-----------------|-----------------|-----------------|-----------------|
A|-3-3-3-3-5-5-5-5-|-6-6-6-6-5-5-5-5-|-3-3-3-3-5-5-5-5-|-6-6-6-6-5-5-5-5-|
E|-----------------|-----------------|-----------------|-----------------|


[Outro]

G|-----------------|-----------------|-----------------|-----------------|-----------------| 
D|-----------------|-----------------|-----------------|-----------------|-----------------|
A|-----------------|-----------------|-------------4-5-|-6-6-6-6-6-6-6-6-|-6-6-6-6-6-4-----|
E|-4-4-4-4-4-4-4-4-|-4-4-4-4-4-4-4-4-|-4-4-4-4-4-4-----|-----------------|-------------6-4-|(x2)


G|-----------------|-----------------|-----------------|-----------------|-----------------|
D|-----------------|-----------------|-----------------|-----------------|-------4---------|
A|-----------------|-----------------|-------------4-5-|-6-6-6-6-6-6-6-6-|-6-6-6---6-4-----|
E|-4-4-4-4-4-4-4-4-|-4-4-4-2-4-2-4-2-|-4-4-4-4-4-4-----|-----------------|-------------6-4-|


G|-----------------|-----------------|-----------------|-----------------|-------------|
D|-----------------|-----------------|-----------------|-----------------|-------------|
A|-----------------|-----------------|-------------4-5-|-6-6-6-6-6-6-6-6-|-6-----------|
E|-4-4-4-4-4-4-4-4-|-4-4-4-4-4-4-4-4-|-4-4-4-4-4-4-----|-----------------|----1--2--3--|

                                             (fade out)
G|-----------------|-----------------|-----------------|
D|-----------------|-----------------|-----------------|
A|-----------------|-----------------|-------------4-5-|
E|-4-4-4-4-4-4-4-4-|-4-4-4-4-4-4-4-4-|-4-4-4-4-4-4-----|



*************************

| \ slide down

*************************

in regular sequence!
Suggest correction
Give kudos to tab author, rate the tab!
1 2 3 4 5
comments
print report bad tab
guest
You may want to rate the tab now too:
select rating
Wanna post a correction for this tab? Suggest correction