Oops, an error
Loading. Please wait.

Victory Tab

10 views 1 this week
no commentswrite comment
1 2 3 4 5
3 more votes to show rating
add to favorites
launch autoscroll
font size
0
reset
how to read this tab
guitar tuner
Autoscroll
slow
fast
+/-
esc
set tempo
stop
Help us to improve Ultimate-Guitar.com Take our survey!
×
Author
[intro]

e|---------------------------------------------------------------------------|
B|--3---3-----0-1-0-3---3-----0----------------------------------------------|
G|----0---0-2---------0---0-2---0--------------------------------------------|
D|--------------------------------2------------------------------------------|
A|---------------------------------------------------------------------------|
E|---------------------------------------------------------------------------|

e|---------------------------------------------------------------------------|
B|--3---3-----0-1-0-3---3-----0----------------------------------------------|
G|----0---0-2---------0---0-2---0---0----------------------------------------|
D|--------------------------------2------------------------------------------|
A|---------------------------------------------------------------------------|
E|---------------------------------------------------------------------------|

[verse]

e|---------------------------------------------------------------------------|
B|--3---3-----0-1-0-3---3-----0----------------------------------------------|
G|----0---0-2---------0---0-2---0--------------------------------------------|
D|--------------------------------2------------------------------------------|
A|---------------------------------------------------------------------------|
E|---------------------------------------------------------------------------|

e|----------2-3-0---0---0---2-3-0---0---0---0--------------------------------|
B|--3---3---------1---1---1-------1---1---1---1------------------------------|
G|----0---0------------------------------------------------------------------|
D|---------------------------------------------------------------------------|
A|---------------------------------------------------------------------------|
E|---------------------------------------------------------------------------|

e|---------------------------------------------------------------------------|
B|--3---3-----0-1-0-3---3-----0----------3--3-3--3-3--3-3--------------------|
G|----0---0-2---------0---0-2---0---0----0--0-0--0-0--0-0--------------------|
D|--------------------------------2------2--2-2--2-2--2-2--------------------|
A|---------------------------------------------------------------------------|
E|---------------------------------------------------------------------------|

e|---------------------------------------------------------------------------|
B|--3---3-----0-1-0-3---3-----0----------------------------------------------|
G|----0---0-2---------0---0-2---0--------------------------------------------|
D|--------------------------------2------------------------------------------|
A|---------------------------------------------------------------------------|
E|---------------------------------------------------------------------------|

e|----------2-3-0---0---0---2-3-0---0---0---0--------------------------------|
B|--3---3---------1---1---1-------1---1---1---1------------------------------|
G|----0---0------------------------------------------------------------------|
D|---------------------------------------------------------------------------|
A|---------------------------------------------------------------------------|
E|---------------------------------------------------------------------------|

e|---------------------------------------------------------------------------|
B|--3---3-----0-1-0-3---3-----0----------3--3-3--3-3--3-3--------------------|
G|----0---0-2---------0---0-2---0---0----0--0-0--0-0--0-0--------------------|
D|--------------------------------2------2--2-2--2-2--2-2--------------------|
A|---------------------------------------------------------------------------|
E|---------------------------------------------------------------------------|

[chorus]

e|---------------------------------------------------------------------------|
B|----0---0---0---0---0---0---0---0------------------------------------------|
G|--0---0---0---0---0---0---0---0--------------------------------------------|
D|---------------------------------------------------------------------------|
A|---------------------------------------------------------------------------| 8x
E|---------------------------------------------------------------------------|
Suggest correction
Give kudos to tab author, rate the tab!
1 2 3 4 5
comments
print report bad tab
guest
You may want to rate the tab now too:
select rating
Wanna post a correction for this tab? Suggest correction