Oops, an error
Loading. Please wait.

Bitter Taste Tab

version 1
version 1

Whole song

916 views 1 this week
no commentswrite comment
1 2 3 4 5
please rate
add to favorites
launch autoscroll
font size
0
reset
how to read this tab
guitar tuner
Tab Pro tools
  • play this tab
  • loop segment
  • change instrument
  • show fretboard
  • metronome
×
Best way to learn
"Bitter Taste"
Autoscroll
slow
fast
+/-
esc
set tempo
stop
Difficulty
Tuning
novice
D A D G B E
-------------------------------------------------------------------------------
                             BITTER TASTE - Spoken
-------------------------------------------------------------------------------
Tabbed by:
Email:

Tuning: DROP D


VERSE 1
e|-------------------------------------|-------------|-----------------------|
B|-------------------------------------|-------------|-----------------------|
G|------888888-----888888-----888888---|444444-666666|-----------------------|
D|-333-1------333-1------333-1-------x2|444444-666666|-*First time only*-----| 
A|-333-1------333-1------333-1---------|222222-444444|-----------------------|
D|-333-1------333-1------333-1---------|-------------|-----------------------|


CHORUS
guitar1
e|---------------------------------------------------------------------------|
B|---------------------------------------------------------------------------|
G|-4444------6666------4444------6666-8888-----------------------------------|
D|-4444-4444-6666-1111-4444-4444-6666-8888-----------------------------------|
A|-2222-4444-4444-1111-2222-4444-4444-6666-----------------------------------|
D|------4444------1111------4444---------------------------------------------|

guitar2 - *this sounds about right; not 100% sure, though*
e|---------------------------------------------------------------------------|
B|---------------------------------------------------------------------------|
G|-11111111-6666-10101010-3333---11111111-6666-10101010-1111111--------------|
D|-x-x-x-x--xxxx-x-x-x-x--xxxx---x-x-x-x--xxxx-x-x-x-x--x-x-x-x--------------|
A|-9-9-9-9--4444-8-8-8-8--1111---9-9-9-9--4444-8-8-8-8--9-9-9-9--------------|
D|---------------------------------------------------------------------------|

e|---------------------------------------------------------------------------|
B|---------------------------------------------------------------------------|
G|-4444------6666------4444------66-66-66-66---------------------------------|
D|-4444-4444-6666-1111-4444-4444-66-66-66-66---------------------------------|
A|-2222-4444-4444-1111-2222-4444-44-44-44-44---------------------------------|
D|------4444------1111------4444---------------------------------------------|

guitar2 - *same here; not 100% sure*
e|---------------------------------------------------------------------------|
B|---------------------------------------------------------------------------|
G|-11111111-6666-10101010-3333---11111111-6666-1010-1010-1010-1010-----------|
D|-x-x-x-x--xxxx-x-x-x-x--xxxx---x-x-x-x--xxxx-x-x--x-x--x-x--x-x------------|
A|-9-9-9-9--4444-8-8-8-8--1111---9-9-9-9--4444-8-8--8-8--8-8--8-8------------|
D|---------------------------------------------------------------------------|


VERSE 2
e|-------------------------------------|-------------|-----------------------|
B|-------------------------------------|-------------|-----------------------|
G|------888888-----888888-----888888---|444444-666666|-----------------------|
D|-333-1------333-1------333-1-------x2|444444-666666|-*First time only*-----| 
A|-333-1------333-1------333-1---------|222222-444444|-----------------------|
D|-333-1------333-1------333-1---------|-------------|-----------------------|


CHORUS
guitar1
e|---------------------------------------------------------------------------|
B|---------------------------------------------------------------------------|
G|-4444------6666------4444------6666-8888-----------------------------------|
D|-4444-4444-6666-1111-4444-4444-6666-8888-----------------------------------|
A|-2222-4444-4444-1111-2222-4444-4444-6666-----------------------------------|
D|------4444------1111------4444---------------------------------------------|

guitar2 - *this sounds about right; not 100% sure, though*
e|---------------------------------------------------------------------------|
B|---------------------------------------------------------------------------|
G|-11111111-6666-10101010-3333---11111111-6666-10101010-1111111--------------|
D|-x-x-x-x--xxxx-x-x-x-x--xxxx---x-x-x-x--xxxx-x-x-x-x--x-x-x-x--------------|
A|-9-9-9-9--4444-8-8-8-8--1111---9-9-9-9--4444-8-8-8-8--9-9-9-9--------------|
D|---------------------------------------------------------------------------|

e|---------------------------------------------------------------------------|
B|---------------------------------------------------------------------------|
G|-4444------6666------4444------66-66-66-66---------------------------------|
D|-4444-4444-6666-1111-4444-4444-66-66-66-66---------------------------------|
A|-2222-4444-4444-1111-2222-4444-44-44-44-44---------------------------------|
D|------4444------1111------4444---------------------------------------------|

guitar2 - *same here; not 100% sure*
e|---------------------------------------------------------------------------|
B|---------------------------------------------------------------------------|
G|-11111111-6666-10101010-3333---11111111-6666-1010-1010-1010-1010-----------|
D|-x-x-x-x--xxxx-x-x-x-x--xxxx---x-x-x-x--xxxx-x-x--x-x--x-x--x-x------------|
A|-9-9-9-9--4444-8-8-8-8--1111---9-9-9-9--4444-8-8--8-8--8-8--8-8------------|
D|---------------------------------------------------------------------------|


BRIDGE
e|---------------------------------------------------------------------------|
B|---------------------------------------------------------------------------|
G|---------------------------------------------------------------------------|
D|-333-1-----333-1--11--11-----333-1-----333-1--11--11--11-------------------|
A|-333-1-----333-1--11--11-----333-1-----333-1--11--11--11-------------------|
D|-333-1-----333-1--11--11-----333-1-----333-1--11--11--11-------------------|
                    xx  xx                      xx  xx  xx

e|---------------------------------------------------------------------------|
B|---------------------------------------------------------------------------|
G|---------------------------------------------------------------------------|
D|-333-1--1--333-1--11--11-----333-1--1--333-1--11--11-----------------------|
A|-333-1--1--333-1--11--11-----333-1--1--333-1--11--11-----------------------|
D|-333-1--1--333-1--11--11-----333-1--1--333-1--11--11-----------------------|
          x         xx  xx            x         xx  xx  


CHORUS
e|---------------------------------------------------------------------------|
B|---------------------------------------------------------------------------|
G|-4444------6666------4444------6666-8888-----------------------------------|
D|-4444-4444-6666-1111-4444-4444-6666-8888-----------------------------------|
A|-2222-4444-4444-1111-2222-4444-4444-6666-----------------------------------|
D|------4444------1111------4444---------------------------------------------|

e|---------------------------------------------------------------------------|
B|---------------------------------------------------------------------------|
G|-4444------6666------4444------66-66-66-66---------------------------------|
D|-4444-4444-6666-1111-4444-4444-66-66-66-66---------------------------------|
A|-2222-4444-4444-1111-2222-4444-44-44-44-44---------------------------------|
D|------4444------1111------4444---------------------------------------------|

ENDING
e|---------------------------------------------------------------------------|
B|---------------------------------------------------------------------------|
G|------888888-----888888-----888888------888888-----------------------------|
D|-333-1------333-1------333-1-------333-1------333-1------------------------|
A|-333-1------333-1------333-1-------333-1------333-1------------------------|
D|-333-1------333-1------333-1-------333-1------333-1------------------------|


| /  slide up
| \  slide down
| h  hammer-on
| p  pull-off
| ~  vibrato
| +  harmonic
| x  Mute note
===============================================================================
comments
We did not receive enough feedback on this tab! Please rate:
print report bad tab
1 2 3 4 5
I want to post or [tab]
guest
You may want to rate the tab now too:
select rating
Please do not post tabs as comments. Select "correction" instead!