Oops, an error
Loading. Please wait.

Brought To Life Tab

176 views 6 this week
1 commentread comment
1 2 3 4 5
please rate
add to favorites
launch autoscroll
font size
0
reset
how to read this tab
guitar tuner
Autoscroll
slow
fast
+/-
esc
set tempo
stop
Help us to improve Ultimate-Guitar.com Take our survey!
×
Author
Difficulty
novice
SONG: BROUGHT TO LIFE
ARTIST: SPOKEN
ALBUM: SPOKEN

TUNING: C# (C# G# C# F# A# D#)

THIS IS A FUN SONG TO PLAY, AND ITS PRETTY EASY TOO. 
THERE'S NOT MANY PARTS, AND NOT TOO MUCH COMPLICATED RYTHM.


INTRO/VERSE
D#[---------------------------]
A#[o-------------------------o]
F#[-----------------------7---]
C#[---9----9----9---9--7--7---]
G#[o--9----9----9---9--7--5--o]
C#[---9----9----9---9--7------]

cHORUS
D#[-----------------------]
A#[o---------------------o]
F#[---7---------7---------]
C#[---7--4--2---7--7--9---]
G#[o--5--4--2---5--7--9--o]
C#[---5--4--2---5--7--9---]

BRIDGE/OUTRO
D#[-----------------------------]
A#[o---------------------------o]
F#[-----------------------------]
C#[---9--7-9----9--7-9---2--4---]
G#[o--9--7-9----9--7-9---2--4--o]
C#[---9--7-9----9--7-9---2--4---]

CHORUS

BRIDGE/OUTRO
Suggest correction
Give kudos to tab author, rate the tab!
1 2 3 4 5
comments
print report bad tab
1 comment total.
0 reply
chickrawker 216 wrote on December 12 2007, 06:26 pm

just remembered-in the chorus:

instead
of...
D#[-----------------------]
A#[o---------------------o]
F#[---7---------7---------]
C#[---7--4--2---7--7--9---
]
G#[o--5--4--2---5--7--9--o]
C#[---5--4--2---5--7--9---]

its...

D#[-------------------------]
A#[o------------
-----------o]
F#[---7-----------7---------]
C#[---7--4--2--0--7--7--9---]
G#[o--5--4--2--0--5--7--9--o]
C#[---5--4--
2--0--5--7--9---]

yep...count on me to forget something arghh

guest
You may want to rate the tab now too:
select rating
Wanna post a correction for this tab? Suggest correction