Oops, an error
Loading. Please wait.

Time After Time Tab

version 1
version 1

Whole song

1,833 views 1 this week
no commentswrite comment
1 2 3 4 5
1 last vote to show rating
add to favorites
launch autoscroll
font size
0
reset
how to read this tab
guitar tuner
Autoscroll
slow
fast
+/-
esc
set tempo
stop
Help us to improve Ultimate-Guitar.com Take our survey!
×
Author
Tuning - DADGBE

Intro
F# D# B 2X

Verse

Strum B and add a suspension every two beats

Bridge (on numbers do bottom three strings, DAD)

2-24-4441-12-222-2-22-222-1-11-111-|
2-24-4441-12-222-------------------| Back to Verse

Chorus

4----6---2--4-|B
4----6---2-4--|B


----------------------------------------------------------------------|
----------11b11-11-----------9b--------9b9----------------------------|
-------11--------------9--11----11-11------11-9----9------------------|
--9-11--------------11--------------------------11---11-9---9-9-11b-9-|
----------------------------------------------------------------------|
----------------------------------------------------------------------|

*Here hold the 7 with your first finger and do a bend/pull off on the 9
                              *
------------------------9b-7-7-9bp-7-9bp-7-9b-11-9-7~~~~~~-|
----------11b11-9-11-12------------------------------------|
-------11--------------------------------------------------|
--9-11-----------------------------------------------------|
-----------------------------------------------------------|
-----------------------------------------------------------|

^_^/m\
Suggest correction
Give kudos to tab author, rate the tab!
1 2 3 4 5
comments
print report bad tab
guest
You may want to rate the tab now too:
select rating
Wanna post a correction for this tab? Suggest correction