Oops, an error
Loading. Please wait.

Time After Time Tab

version 2
version 2

Whole song

389 views 1 this week
no commentswrite comment
1 2 3 4 5
please rate
add to favorites
launch autoscroll
font size
0
reset
how to read this tab
guitar tuner
Autoscroll
slow
fast
+/-
esc
set tempo
stop
Help us to improve Ultimate-Guitar.com Take our survey!
×
Author
Difficulty
Tuning
intermediate
D A D G B E
  Artist-Spoken
  Song-Time After Time
  Album-Last Chance To Breathe
  Tabbed By Navarone Hartman
  

  Great song by an amazing band but sadly no good tabs up so I decided to do it myself
  Pretty Sure this is 99-100% but hey who cares what I think, I wanna know what you think
  so please rate and comment! 



 ================================================================================
 ******************************Rhythm Guitar*************************************
 ================================================================================ 


     Intro:
  E ------------------------------------------------|
  B ------------------------------------------------|
  G --------------------------------------------4---|
  D --4-4-4---4-4-4---6-6-6---6-6-6---2-2---2-4-4---| X2
  A --4-4-4---4-4-4---6-6-6---6-6-6---2-2---2-4-2---|
  D --4-4-4---4-4-4---6-6-6---6-6-6---2-2---2-4-----|


    verse:    
  E ------------|
  B ------------|
  G -4-4-4-4-4--|
  D -4-4-4-4-4--|[repeat till bridge]
  A -2-2-2-2-2--|
  D ------------|
  PM . . . . .



    Bridge: [slightly palm muted]
  E ---------------------------|
  B ---------------------------|
  G ---------------------------|
  D -----4--4-4--------1--1-1--| X2
  A -2-2----------2-2----------|
  D ---------------------------|

 
   Repeat verse
   Repeat bridge

  
    Chorus
  E -----------------------------------------------|
  B -----------------------------------------------|
  G -------------------------------------------4---|
  D -4-4-4---4-4-4---6-6-6---6-6-6---2-2---2-4-4---| X4
  A -4-4-4---4-4-4---6-6-6---6-6-6---2-2---2-4-2---|
  D -4-4-4---4-4-4---6-6-6---6-6-6---2-2---2-4-----|
  


  Repeat verse
  Repeat Bridge
  Repeat Chorus
  

     Behind Solo:
  E -------------------------------------------|
  B -------------------------------------------|
  G ---------------------------------------4---|
  D -4-4-4-4-4-4-4-4-6-6-6-6-6-6-6-6-2--4--4---| X2
  A -4-4-4-4-4-4-4-4-6-6-6-6-6-6-6-6-2--4--2---|
  D -4-4-4-4-4-4-4-4-6-6-6-6-6-6-6-6-2--4------|


  Repeat bridge
  Repeat Chorus

  
    outro:
  E -------------|
  B -------------|
  G ----------4--|
  D --2-2-4-4-4--| X3
  A --2-2-4-4-2--|
  D --2-2-4-4----|




 ======================================================================================
 *********************************LEAD GUITAR******************************************
 ======================================================================================


    Intro:
  E ------------------------------------------|
  B ------7-------------7---------------------|
  G --4h6----4h6\1--4h6----4h6p4--3-4-4-3-4---|
  D ------------------------------------------|
  A ------------------------------------------|
  D ------------------------------------------|


     Verse P1:
  E ------------------------------|
  B ------------------------------|
  G -4----------------------------|
  D -4[palm mute]-----------------|
  A -2----------------------------|
  D ------------------------------|

  
   Verse P2: [Clean]
  E ------14---|
  B ----12-----|
  G --11-------|
  D -----------|
  A -----------|
  D -----------|

 

  Repeat Verse P1



   Bridge: [slightly palm muted]
  E ---------------------------|
  B ---------------------------|
  G ---------------------------|
  D -----4--4-4--------1--1-1--| X2
  A -2-2----------2-2----------|
  D ---------------------------|


     Chorus: [very faint under rhythm chords]
  E ------------------------------------------|
  B ------7-------------7---------------------|
  G --4h6----4h6\1--4h6----4h6p4--3-4-4-3-4---|
  D ------------------------------------------| X4
  A ------------------------------------------|
  D ------------------------------------------|

  

   Repeat verse
   Repeat bridge
   Repeat Chorus


    Solo:
  E ------------------------------------------------|
  B ----------11b-----------------------------------|
  G -------11------------11-11b-11b-9---------------|
  D --9-11----------9-11--------------13-11-13-9~---|
  A ------------------------------------------------|
  D ------------------------------------------------|

  E ---------------------------------16b--12p10-------------------|
  B ----------11b--------------11-12------------12--15b-15b-12~---|
  G -------11-----------11-11b------------------------------------|
  D --9-11----------9-11------------------------------------------|
  A --------------------------------------------------------------|
  D --------------------------------------------------------------|


  Repeat bridge
  Repeat Chorus

    Outro:
  E -------------|
  B -------------|
  G --3-4-4-3-4--|
  D -------------|
  A -------------|
  D -------------|


 ==========================================================================================
Suggest correction
What's this?
You can suggest a correction to this tab. Community and Mods will review your correction and vote to approve or reject it.
comments
We did not receive enough feedback on this tab! Please rate:
print report bad tab
1 2 3 4 5
guest
You may want to rate the tab now too:
select rating
Please do not post tabs as comments. Select "correction" instead!