Oops, an error
Loading. Please wait.

Plowed tab

version 2
version 2

Whole song

Interactive

by Sponge
1,951 views 57 this week
4 commentsread comments
1 2 3 4 5
x 8
add to favorites
×
Save as Personal and add changes to this tab that will be seen only by you. Learn more ›
×
You can save this tab as Personal to edit and correct it or add notes. All changes will be seen only by you. Learn more »
launch autoscroll
font size
0
reset
how to read this tab
guitar tuner
backing track
0:00
0:00
edit
Autoscroll
slow
fast
+/-
esc
set tempo
stop
I figured on doing a Standard tuning version of a nice song. Hope it helps out. Surprised that not too many
tabs were made for the song.

Intro: e|----|
       B|-4~-|
       G|----|
       D|----|
       A|----|
       E|----|

       e|----------------------------------|
       B|-44444222444442224444666677776622-|
       G|----------------------------------| X4
       D|----------------------------------|
       A|----------------------------------|
       E|----------------------------------|

Verse: e|-----------------------------------------------------------------------------------------|
       B|-----------------------------------------------------------------------------------------|
       G|-8-8-8-8-----------------6-6-----4-4-4-4-4-4-4-4-4-4-4-4---------------------------------| X2
       D|-8-8-8-8-4-4-4-4-6-6-6-6-6-6-6-6-4-4-4-4-4-4-4-4-4-4-4-4-4-4-4-4-4-4-4-4-4-4-4-4-4-4-4-4-|
       A|-6-6-6-6-4-4-4-4-6-6-6-6-4-4-6-6-2-2-2-2-2-2-2-2-2-2-2-2-4-4-4-4-4-4-4-4-4-4-4-4-4-4-4-4-|
       E|---------2-2-2-2-4-4-4-4-----4-4-------------------------2-2-2-2-2-2-2-2-2-2-2-2-2-2-2-2-|

          Will I wake up, is this some dream I made up? No, I guess it's reality.

          What will change us, or will we mess up our only chance to connect with a dream?

Pre-Chorus: e|---------------------------------------------------------------------------------------------|
            B|-9-7-6-----9-7-6-----9-7-6-76~-9-7-6-----9-7-6-----9-7-6-------------------------------------|
            G|-------64~-------64~-----------------64~-------64~-------64~-4-4-4-4-4-4-4-4-4-4-4-4-4-4-4-4-|
            D|-------------------------------------------------------------4-4-4-4-4-4-4-4-4-4-4-4-4-4-4-4-|
            A|-------------------------------------------------------------2-2-2-2-2-2-2-2-2-2-2-2-2-2-2-2-|
            E|---------------------------------------------------------------------------------------------|

               Say a prayer for me (say a prayer for me).

               Say a prayer FOR ME (say a prayer for me).

               Say a prayer for me (say a prayer for me).

               I'm buried by the sound...in a

Chorus: e|---------------------------------|
        B|---------------------------------|
        G|-8-8-8-8-8-8-8-8-----------------| X3
        D|-8-8-8-8-8-8-8-8-9-9-9-9-9-9-9-9-|
        A|-6-6-6-6-6-6-6-6-9-9-9-9-9-9-9-9-|
        E|-----------------7-7-7-7-7-7-7-7-|

           World of human wreckage

           In a world of human wreckage

           In a world of human wreckage

        e|-----------------------------------------------------------|
        B|-----------------------------------------------------------|
        G|-----------------------------------------------------------|
        D|-6~-x6~-----6-9~-x9~-----9-9-9-9-9-9-9-9-9-9-9-9-9-9-9-9-9-|
        A|-6~-x6~---6---9~-x9~---9---9-9-9-9-9-9-9-9-9-9-9-9-9-9-9-9-|
        E|-4~-x4~-4-----7~-x7~-7-----7-7-7-7-7-7-7-7-7-7-7-7-7-7-7-7-|

           I'm lost and I'm found and I can't touch the ground. I'm plowed into the sound.

Pre-Verse: e|----------------------------------|
           B|-44444222444442224444666677776622-|
           G|----------------------------------| X2
           D|----------------------------------|
           A|----------------------------------|
           E|----------------------------------|

           e|-22222111222221112222444466664422-|
           B|----------------------------------|
           G|----------------------------------| X2
           D|----------------------------------|
           A|----------------------------------|
           E|----------------------------------|

Verse: e|-----------------------------------------------------------------------------------------|
       B|-----------------------------------------------------------------------------------------|
       G|-8-8-8-8-----------------6-6-----4-4-4-4-4-4-4-4-4-4-4-4---------------------------------| X2
       D|-8-8-8-8-4-4-4-4-6-6-6-6-6-6-6-6-4-4-4-4-4-4-4-4-4-4-4-4-4-4-4-4-4-4-4-4-4-4-4-4-4-4-4-4-|
       A|-6-6-6-6-4-4-4-4-6-6-6-6-4-4-6-6-2-2-2-2-2-2-2-2-2-2-2-2-4-4-4-4-4-4-4-4-4-4-4-4-4-4-4-4-|
       E|---------2-2-2-2-4-4-4-4-----4-4-------------------------2-2-2-2-2-2-2-2-2-2-2-2-2-2-2-2-|

          To see wide open with a head that's broken. Hang a life on a tragedy.

          Plow me under the ground that covers the message that is the seed.

Pre-Chorus: e|---------------------------------------------------------------------------------------------|
            B|-9-7-6-----9-7-6-----9-7-6-76~-9-7-6-----9-7-6-----9-7-6-------------------------------------|
            G|-------64~-------64~-----------------64~-------64~-------64~-4-4-4-4-4-4-4-4-4-4-4-4-4-4-4-4-|
            D|-------------------------------------------------------------4-4-4-4-4-4-4-4-4-4-4-4-4-4-4-4-|
            A|-------------------------------------------------------------2-2-2-2-2-2-2-2-2-2-2-2-2-2-2-2-|
            E|---------------------------------------------------------------------------------------------|

               Say a prayer for me (say a prayer for me).

               Say a prayer FOR ME (say a prayer for me).

               Say a prayer for me (say a prayer for me).

               I'm buried by the sound...in a

Chorus: e|---------------------------------|
        B|---------------------------------|
        G|-8-8-8-8-8-8-8-8-----------------| X3
        D|-8-8-8-8-8-8-8-8-9-9-9-9-9-9-9-9-|
        A|-6-6-6-6-6-6-6-6-9-9-9-9-9-9-9-9-|
        E|-----------------7-7-7-7-7-7-7-7-|

           World of human wreckage

           In a world of human wreckage

           In a world of human wreckage

        e|-----------------------------------------------------------|
        B|-----------------------------------------------------------|
        G|-----------------------------------------------------------|
        D|-6~-x6~-----6-9~-x9~-----9-9-9-9-9-9-9-9-9-9-9-9-9-9-9-9-9-|
        A|-6~-x6~---6---9~-x9~---9---9-9-9-9-9-9-9-9-9-9-9-9-9-9-9-9-|
        E|-4~-x4~-4-----7~-x7~-7-----7-7-7-7-7-7-7-7-7-7-7-7-7-7-7-7-|

           I'm lost and I'm found and I can't touch the ground. I'm plowed into the sound.
Outro: e|-----------------------------------------------------------------------------------------|
       B|-----------------------------------------------------------------------------------------|
       G|-8-8-8-8-----------------6-6-----4-4-4-4-4-4-4-4-4-4-4-4---------------------------------| 
       D|-8-8-8-8-4-4-4-4-6-6-6-6-6-6-6-6-4-4-4-4-4-4-4-4-4-4-4-4-4-4-4-4-4-4-4-4-4-4-4-4-4-4-4-4-|
       A|-6-6-6-6-4-4-4-4-6-6-6-6-4-4-6-6-2-2-2-2-2-2-2-2-2-2-2-2-4-4-4-4-4-4-4-4-4-4-4-4-4-4-4-4-|
       E|---------2-2-2-2-4-4-4-4-----4-4-------------------------2-2-2-2-2-2-2-2-2-2-2-2-2-2-2-2-|

          Will I wake up, is this some dream I made up? No, I guess it's reality.

            
            
Suggest correction
Creating personal tab
Creating personal tab
You can edit any tab online and save it as your Personal.

You can edit, replace or remove any tab part or add personal notes – all changes will be seen only by you.

Personal tabs can be accessed anytime from any device, even offline.
Learn more »
comments
print report bad tab
4 comments total. Showing first comments.
0 reply
shabbadoo 10 Jan 10, 2016 07:32 PM

I remember this song, forgot who did it...and the name of it. lol

This is my project for tomorrow.

0 reply
the_tabber_b 10 Jan 23, 2016 06:09 PM

didn't like this contribution

guest
You may want to rate the tab now too:
select rating
Wanna post a correction for this tab? Suggest correction