Oops, an error
Loading. Please wait.

Bitiw Tab

version 1
version 1

Whole song

Interactive

37,532 views 60 this week
58 commentsread comments
1 2 3 4 5
x 52
add to favorites
×
Save as Personal and add changes to this tab that will be seen only by you. Learn more ›
×
You can save this tab as Personal to edit and correct it or add notes. All changes will be seen only by you. Learn more »
save as personal
new!
launch autoscroll
font size
0
reset
how to read this tab
guitar tuner
Autoscroll
slow
fast
+/-
esc
set tempo
stop
C#              B-C#            C#              B-C
e|-------------------------------|-------------------------|
B|-------------------------------|-------------------------|
G|-66-666-666-666--4-6-----------|-66-666-666-666--4-6-----|
D|-66-666-666-666--4s6-----------|-66-666-666-666--4s6-----|
A|-44-444-444-444--2-4-----------|-44-444-444-444--2-4-----|
E|-------------------------------|-------------------------|

   C#              E-C#            C#              B-C#
e|-------------------------------|-------------------------|
B|-------------------------------|-------------------------|
G|-66-666-666-666--9-6-----------|-66-666-666-666--4-6-----|
D|-66-666-666-666--9s6-----------|-66-666-666-666--4s6-----|
A|-44-444-444-444--7-4-----------|-44-444-444-666--2-4-----|
E|-------------------------------|-------------------------|

[Verse 1]
   C#              B-C#            C#              B-C#
e|-------------------------------|-------------------------|
B|-------------------------------|-------------------------|
G|-66-666-999-999--4-6-----------|-66-666-999-999--4-6-----|
D|-66-666-999-999s-4s6-----------|-66-666-999-999s-4s6-----|
A|-44-444-777-777--2-4-----------|-44-444-777-777--2-4-----|
E|-------------------------------|-------------------------|
  Tama walang laglagan             At sama-samang hanapin ang liwanag

   C#              E-C#            C#              B-C#
e|-------------------------------|-------------------------|
B|-------------------------------|-------------------------|
G|-66-666-999-999--9-6-----------|-66-666-999-999--4-6-----|
D|-66-666-999-999s-9s6-----------|-66-666-999-999s-4s6-----|
A|-44-444-777-777--7-4-----------|-44-444-777-777--2-4-----|
E|-------------------------------|-------------------------|
At tayo'y magpa2alon sa 1 daluyong Na maghahatid sa atin

   F#                              A  G# F#-G#
e|-------------------------------|-------------------------|
B|-------------------------------|-------------------------|
G|-------------------------------|-------------------------|
D|-44444444----------------------|-7--6---4-6--------------|
A|-44444444----------------------|-7--6---4-6--------------|
E|-22222222----------------------|-5--4---2-4--------------|
   Sa isang mahabang panaginip     'di na hihinto

   D                               Eb
e|-------------------------------|-------------------------|
B|-------------------------------|-------------------------|
G|-77777777----------------------|-88888888----------------|
D|-77777777----------------------|-88888888----------------|
A|-55555555----------------------|-66666666----------------|
E|-------------------------------|-------------------------|
   ..............................  Wooh-ohh

[Chorus]
   E                               G#
e|-------------------------------|-------------------------|
B|-------------------------------|-------------------------|
G|-11111111----------------------|-------------------------|
D|-22222222----------------------|-66666666----------------|
A|-22222222----------------------|-66666666----------------|
E|-------------------------------|-44444444----------------|
   Wag kang bibitiw bigla          Wag kang bibitiw bigla

   F#                               A9
e|-------------------------------|-------------------------|
B|-------------------------------|-------------------------|
G|-------------------------------|--22222222---------------|
D|-44444444----------------------|--22222222---------------|
A|-44444444----------------------|--00000000---------------|
E|-22222222----------------------|-------------------------|
   Higpitan lang ang iyong kapit    Maglalayag patungong langit
  BASS GUITAR (pwede rin sa acoustic or elec. qng wala kyo bass

(Gtr 3)
  C#         B        G#         F#
e|---------------------------------------------------------|
B|---------------------------------------------------------|
G|---------------------------------------------------------|
D|---------------------------------------------------------|
A|---------------------------------------------------------|
E|-9 9 9 9---7-7-7-7---4-4-4-4---2-2-2-2-------------------|

  C#         B        G#         F#
e|---------------------------------------------------------|
B|---------------------------------------------------------|
G|---------------------------------------------------------|
D|---------------------------------------------------------|
A|---------------------------------------------------------|
E|-9 9 9 9---7-7-7-7---4-4-4-4---2-2-2-2-------------------|
   Na na na na na na na na .............

   C#      G#         B
e|---------------------------------------------------------|
B|---------------------------------------------------------|
G|-66------------------------------------------------------|
D|-66------66---------99-----------------------------------|
A|-44------66---------99-----------------------------------|
E|---------44---------77-----------------------------------|
   Teka, kaya ba natin 'to

   C#      G#         B
e|---------------------------------------------------------|
B|---------------------------------------------------------|
G|-66------------------------------------------------------|
D|-66------66---------99-----------------------------------|
A|-44------66---------99-----------------------------------|
E|---------44---------77-----------------------------------|
   Kung hindi na'y aakayin ka't itatayo

   C#      G#         B
e|---------------------------------------------------------|
B|---------------------------------------------------------|
G|-66------------------------------------------------------|
D|-66------66---------99-----------------------------------|
A|-44------66---------99-----------------------------------|
E|---------44---------77-----------------------------------|
   yun 'yon kaya hangang ngayon

   A9
e|---------------------------------------------------------|
B|---------------------------------------------------------|
G|---------------------------------------------------------|
D|-777777777-----------------------------------------------|
A|-777777777-----------------------------------------------|
E|-555555555-----------------------------------------------|
   Tuloy-tuloy, tuloy-tuloy, tuloy

[Chorus]
   E                               G#
e|-------------------------------|-------------------------|
B|-------------------------------|-------------------------|
G|-11111111----------------------|-------------------------|
D|-22222222----------------------|-66666666----------------|
A|-22222222----------------------|-66666666----------------|
E|-------------------------------|-44444444----------------|
   Wag kang bibitiw bigla          Wag kang bibitiw bigla

   F#                               A9
e|-------------------------------|-------------------------|
B|-------------------------------|-------------------------|
G|-------------------------------|--22222222---------------|
D|-44444444----------------------|--22222222---------------|
A|-44444444----------------------|--00000000---------------|
E|-22222222----------------------|-------------------------|
   Higpitan lang ang iyong kapit    Maglalayag patungong langit

   E                               G#
e|-------------------------------|-------------------------|
B|-------------------------------|-------------------------|
G|-11111111----------------------|-------------------------|
D|-22222222----------------------|-66666666----------------|
A|-22222222----------------------|-66666666----------------|
E|-------------------------------|-44444444----------------|
   Wag kang bibitiw bigla          Pikit ang 'yong mga mata

   F#                               A9
e|-------------------------------|-------------------------|
B|-------------------------------|-------------------------|
G|-------------------------------|--22222222---------------|
D|-44444444----------------------|--22222222---------------|
A|-44444444----------------------|--00000000---------------|
E|-22222222----------------------|-------------------------|
   Higpitan lang ang 'yong kapit    Maglalayag patungong langit

[Interlude]
(Gtr 3)
   C#     B    G# F# G#          C#     B    G#   Eb
e|--------------------------------------------------------|
B|--------------------------------------------------------|
G|--------------------------------------------------------|
D|--------------------------------------------------------|
A|-4-4-4--2-4--------------------4-4-4--2-4-------6-6-----|
E|-------------4--2--4-4---------------------4-4----------|

(Gtr 3)
   C#     B    G# F# G#          C#     B    G#   Eb
e|--------------------------------------------------------|
B|--------------------------------------------------------|
G|--------------------------------------------------------|
D|--------------------------------------------------------|
A|-4-4-4--2-4--------------------4-4-4--2-4-------6-6-----|
E|-------------4--2--4-4---------------------4-4----------|

(Gtr 2)
e|--------------------------------------------------------|
B|-9-10-9s7-9h7s5-7-5s4-5-4s2-0---------------------------|
G|-------------------------------5s6~------4---4---4~~~~--|
D|-------------------------------------------6---6--------|
A|--------------------------------------------------------|
E|--------------------------------------------------------|

(Gtr 1)
   C#  B     G#   F#   G#        C#  F#   G#     Eb
e|--------------------------------------------------------|
B|--------------------------------------------------------|
G|-666-4-6------------------------666-4-6----------8--8---|
D|-666-4-6----6----4----66--------666-4-6---6--6---8--8---|
A|-444-2-4----6----4----66--------444-2-4---6--6---6--6---|
E|------------4----2----44------------------4--4----------|

(Gtr 2)
e|--------------------------------------------------------|
B|-------4--4-4---4--4s6----------------------------------|
G|-----6-----6--6-------------------------4-4 4-4---------|
D|2s4-4-------------------------------6----6---6---2-2----|
A|-------------------------------2s4-4-----------4--------|
E|--------------------------------------------------------|

    F#                     A
e|-------------------------------------------------------|
B|-------------------------------------------------------|
G|-------------------------------------------------------|
D|--444444444--------------777777777---------------------|
A|--444444444--------------777777777---------------------|
E|--222222222--------------555555555---------------------|

(Gtr 2)
e|--------------------------------------------------12---|
B|----------------------------5-5-7-7s9-7-9s10-9-10------|
G|------------------------4s6----------------------------|
D|--3s4--------------------------------------------------|
A|-------------------------------------------------------|
E|-------------------------------------------------------|

(Gtr 1)
    C#                G#         B
e|-------------------------------------------------------|
B|-------------------------------------------------------|
G|-------------------------------------------------------|
D|--111111111111------6----------9-----------------------|
A|--111111111111------6----------9-----------------------|
E|---9-9-9-9-9-9------4----------7-----------------------|

(Gtr 2)
e|--1212121212121212121212121212-11.11.11.11.111---------|
B|-------------------------------------------------------|
G|-------------------------------------------------------|
D|-------------------------------------------------------|
A|-------------------------------------------------------|
E|-------------------------------------------------------|

(Gtr 1)
    C#                G#         B
e|-------------------------------------------------------|
B|-------------------------------------------------------|
G|-------------------------------------------------------|
D|--111111111111------6----------9-----------------------|
A|--111111111111------6----------9-----------------------|
E|---9-9-9-9-9-9------4----------7-----------------------|
   ating himig

(Gtr 2)
e|--1212121212121212121212121212-11.11.11.11.111---------|
B|-------------------------------------------------------|
G|-------------------------------------------------------|
D|-------------------------------------------------------|
A|-------------------------------------------------------|
E|-------------------------------------------------------|

    C#                G#         B
e|-------------------------------------------------------|
B|-------------------------------------------------------|
G|-------------------------------------------------------|
D|--111111111111------6----------9-----------------------|
A|--111111111111------6----------9-----------------------|
E|---9-9-9-9-9-9------4----------7-----------------------|

Abot langit
(Gtr 2)   
e|--1212121212121212121212121212-11.11.11.11.111---------|
B|-------------------------------------------------------|
G|-------------------------------------------------------|
D|-------------------------------------------------------|
A|-------------------------------------------------------|
E|-------------------------------------------------------|

    F#                     A
e|-------------------------------------------------------|
B|-------------------------------------------------------|
G|-------------------------------------------------------|
D|--444444444--------------777777777---------------------|
A|--444444444--------------777777777---------------------|
E|--222222222--------------555555555---------------------|
    Heto na tayo (heto na tayo) 2x

[Chorus]
   E                               G#
e|-------------------------------|-------------------------|
B|-------------------------------|-------------------------|
G|-11111111----------------------|-------------------------|
D|-22222222----------------------|-66666666----------------|
A|-22222222----------------------|-66666666----------------|
E|-------------------------------|-44444444----------------|
   Wag kang bibitiw bigla          Wag kang bibitiw bigla

   F#                               A9
e|-------------------------------|-------------------------|
B|-------------------------------|-------------------------|
G|-------------------------------|--22222222---------------|
D|-44444444----------------------|--22222222---------------|
A|-44444444----------------------|--00000000---------------|
E|-22222222----------------------|-------------------------|
   Higpitan lang ang iyong kapit    Maglalayag patungong langit

   E                               G#
e|-------------------------------|-------------------------|
B|-------------------------------|-------------------------|
G|-11111111----------------------|-------------------------|
D|-22222222----------------------|-66666666----------------|
A|-22222222----------------------|-66666666----------------|
E|-------------------------------|-44444444----------------|
   Wag kang bibitiw bigla          Pikit ang 'yong mga mata

   F#                               A9
e|-------------------------------|-------------------------|
B|-------------------------------|-------------------------|
G|-------------------------------|--22222222---------------|
D|-44444444----------------------|--22222222---------------|
A|-44444444----------------------|--00000000---------------|
E|-22222222----------------------|-------------------------|
   Higpitan lang ang 'yong kapit    Maglalayag patungong langit

   E                               G#
e|-------------------------------|-------------------------|
B|-------------------------------|-------------------------|
G|-11111111----------------------|-------------------------|
D|-22222222----------------------|-66666666----------------|
A|-22222222----------------------|-66666666----------------|
E|-------------------------------|-44444444----------------|
   wooh ..................

   F#                               A9
e|-------------------------------|-------------------------|
B|-------------------------------|-------------------------|
G|-------------------------------|--22222222---------------|
D|-44444444----------------------|--22222222---------------|
A|-44444444----------------------|--00000000---------------|
E|-22222222----------------------|-------------------------|

   E                               G#
e|-------------------------------|-------------------------|
B|-------------------------------|-------------------------|
G|-11111111----------------------|-------------------------|
D|-22222222----------------------|-66666666----------------|
A|-22222222----------------------|-66666666----------------|
E|-------------------------------|-44444444----------------|
   Heto na tayo (heto na tayo)     Heto na tayo (heto na tayo)

   F#                               A9
e|-------------------------------|-------------------------|
B|-------------------------------|-------------------------|
G|-------------------------------|--6-6-4-6-6-4-6----------|
D|-44x44x44----------------------|--4-4-2-4-4-2-4-6--------|
A|-44x44x44----------------------|----------------4--------|
E|-22x22x22----------------------|-------------------------|
   Heto na tayo (heto na tayo)



************************************

| h  Hammer-on
| ~  Vibrato
| x  Dead note

************************************
Suggest correction
comments
print report bad tab
58 comments total. Showing first comments.
0 reply
pau_intal 10 Oct 06, 2006 03:33 AM

hindi masyado maganda tunog at wrong grammar ang english mo

0 reply
korn113 92 Oct 06, 2006 03:43 AM

aios lng naman.. pede na ang 4*

0 reply
miletone17 10 Oct 06, 2006 07:35 PM

maganda nmn.. auz ung tab pang dlwng tuning..

guest
You may want to rate the tab now too:
select rating
Wanna post a correction for this tab? Suggest correction