Oops, an error
Loading. Please wait.

Closer You And I Bass Tab

2,014 views 1 this week
no commentswrite comment
1 2 3 4 5
please rate
add to favorites
launch autoscroll
font size
0
reset
guitar tuner
Tab Pro tools
  • play this tab
  • loop segment
  • change instrument
  • show fretboard
  • metronome
Autoscroll
slow
fast
+/-
esc
set tempo
stop
Title: Closer You and I
Band: Sponge Cola
Tabbed by: Mark Lance Terrible

first tab ku 2.....sbhin nyu n lang pag may mali....tnx...!!!...eow sa mga tga liceo de 
tsaka sa banda ni barok...hekhek...

Standard Tuning

Verse1:
   G|----------------------------------------------------|
   D|----------------------------------------------------|
   A|----------------------------------------------------|
   E|-----7-----7-6-----6-4-----4-2-----2-0~-------------|
   Hey, there's a look in your eyes Must be love at first sight...

   G|----------------------------------------------------|
   D|----------------------------------------------------|
   A|----------------------------------------------------|
   E|-----------------------------------2-0~-------------|
   You were just part of a dream Nothing more so it seemed...

Pre-Chorus:
   G|----------------------------------------------------|
   D|----------------------------------------------------|
   A|-----4-444-----6-666---------------4-444------------|
   E|-------------------------4-444----------------------|
   But my love couldn't wait much longer Just can't forget the picture of your smile...

   G|----------------------------------------------------|
   D|-------------------------------------11~------------|
   A|-----7-777-----8-888-----9-999-----9----------------|
   E|----------------------------------------------------|
   'Coz everytime I close my eyes You come alive...

Chorus:
   G|----------------------------------------------------|
   D|----------------------------------------------------|
   A|-----6-666---------------4-444----------------------|
   E|---------------4-444---------------2-222------------|
   The closer I get to touching you The closer I get to loving you...

   G|----------------------------------------------------|
   D|----------------------------------------------------|
   A|-----2-222-----7-777-----4-444----------------------|
   E|-----------------------------------2~---------------|
   Give it a time Just a little more time We'll be together You and I...

Guitar Interlude:
   G|----------------------------------------------------|
   D|----------------------------------------------------|
   A|----------------------------------------------------|
   E|-----7-----7-6-----6-4-----4-2-----2-0~--0-0----0-0-|

Verse2:
   G|----------------------------------------------------|
   D|----------------------------------------------------|
   A|----------------------------------------------------|
   E|----------------------------------------------------|
   Then could I love you more So much stronger than before...


   G|----------------------------------------------------|
   D|----------------------------------------------------|
   A|----------------------------------------------------|
   E|-----7-----7-6-----6-4-----4-2-----2-0~-------------|
   Why does it seem like a dream So much more so it seems...

Pre-Chorus:
   G|----------------------------------------------------|
   D|----------------------------------------------------|
   A|-----4-444-----6-666---------------4-444------------|
   E|-------------------------4-444----------------------|
   I guess I found my inspiration
With just one smile, you take my breath away...

   G|----------------------------------------------------|
   D|----------------------------------------------------|
   A|-----7-777-----8-888-----9-999--9999~---------------|
   E|----------------------------------------------------|
   So hold me close And say you'll stay with me now...

Chorus:
   G|----------------------------------------------------|
   D|----------------------------------------------------|
   A|-----6-666---------------4-444----------------------|
   E|---------------4-444---------------2-222------------|
   The closer I get to touching you The closer I get to loving you...

   G|----------------------------------------------------|
   D|----------------------------------------------------|
   A|-----2-222-----7-777-----4-444----------------------|
   E|-----------------------------------2~---------------|
   Give it a time Just a little more time We'll be together...

Chorus2:
   G|----------------------------------------------------|
   D|----------------------------------------------------|
   A|-----6-666---------------4-444----------------------|
   E|---------------4-444---------------2-222------------|
   Every little smile That special smile The twinkle in your eye In a little while...

   G|----------------------------------------------------|
   D|----------------------------------------------------|
   A|-----2-222-----7-777-----4~-------------------------|
   E|----------------------------------------------------|
   Give it a time Just a little more time
So we can get closer...You and I...

Outro:
   G|----------------------------------------------------|
   D|----------------------------------------------------|
   A|----------------------------------------------------|
   E|-----7-----7-6-----6-4-----4-2-----2-0~--0-0----0-0-|
comments
We did not receive enough feedback on this tab! Please rate:
print report bad tab
1 2 3 4 5
I want to post or [tab]
guest
You may want to rate the tab now too:
select rating
Please do not post tabs as comments. Select "correction" instead!