Oops, an error
Loading. Please wait.

Closer You And I chords

version 4
version 4

Whole song

5,660 views 6 this week
1 commentread comment
1 2 3 4 5
x 3
add to favorites
×
Save as Personal and add changes to this tab that will be seen only by you. Learn more ›
×
You can save this tab as Personal to edit and correct it or add notes. All changes will be seen only by you. Learn more »
launch autoscroll
font size
0
reset
transpose
0
reset
simplify chords
display chords
guitar tuner
edit
Autoscroll
slow
fast
+/-
esc
set tempo
stop
Strumming
There is no strumming pattern for this song yet. and get +5 IQ
Title: Closer You and I
Artist: Spongecola

Note:
*This is not their actual Keys, I just played it like this 
because I like it's uniqueness and the sound. 
Pluck or strum it'll sound good in both ways.

Note: capo on 3rd fret

Intro:              
E|------------5-3--2-3------0-----0---------------------------| 
B|-3-3---3-3-----------3------3-----3---3---------------------|
G|-----4------------------0-----0-----0---0---0-2-------------|
D|------------------------------------------4-----------------|
A|------------------------------------------------------------|
D|------------------------------------------------------------|

Verse
   G   F#m/D   Em   Dsus C            D
E|-------------------------0--0-----------------| 
B|---3-----3-----3----3-----3--3-3--------------|
G|--0-----0-----0----0----0--0--0-0-0-2---------|
D|------------------0--0-----------4------------|
A|-----------------------3----------------------|
D|-3--3--2--2--0--0-----------------------------|

   G   F#m/D  Em    Dsus  C9     D    Am    Bm    Em    A7     C   C#/Am7
E|-3-| |-3-| |-3-| |-3-| |-3-| |-2-| |---| |-2-| |---| |---| |---| |---|
B|-3-| |-3-| |-3-| |-3-| |-3-| |-3-| |-1-| |-3-| |---| |-2-| |-1-| |-1-|
G|---| |---| |---| |-2-| |---| |-2-| |-2-| |-4-| |---| |---| |---| |---|
D|---| |---| |-2-| |---| |-2-| |---| |-2-| |-4-| |-2-| |-2-| |-2-| |-2-|
A|-2-| |---| |-2-| |---| |-3-| |---| |---| |-2-| |-2-| |---| |-3-| |-4-|
D|-3-| |-2-| |---| |---| |---| |---| |---| |---| |---| |---| |---| |---|

Chorus
   B    Em    A7    D7     G     C    Am    D7
E|-2-| |---| |---| |-2-| |-3-| |---| |---| |-2-| 
B|-4-| |---| |-2-| |-1-| |-3-| |-1-| |-1-| |-1-| 
G|-4-| |---| |---| |-2-| |---| |---| |-2-| |-2-| 
D|-4-| |-2-| |-2-| |---| |---| |-2-| |-2-| |---| 
A|-2-| |-2-| |---| |---| |-2-| |-3-| |---| |---| 
D|---| |---| |---| |---| |-3-| |---| |---| |---| 


Verse 1:
G              F#m/D         Em  Dsus
Hey, there's a look in your eyes 
         C9                  D          
Must be love at first sight 
G             F#m/D       Em  Dsus
You were just part of a dream
         C9               D
Nothing more so it seemed 
        Am                      Bm
But my love couldn't wait much longer 
              Em                       A7
Just can't forget the picture of your smile
            C              C#/Am7 
'Coz every time I close my eyes
          D
You come alive 


CHORUS 1: 
               B              Em 
The closer I get to touching you
              A7           D7 
The closer I get to loving you 
            G
Give it a time
                     C 
Just a little more time
               Am     D7 
We'll be together 

        G  F#m7/D  Em  Dsus  C  D
You and I 

Verse 2: Same keys as verse 1
Then could I love you more 
So much stronger than before 
Why does it seem like a dream 
So much more so it seems 
I guess I found my inspiration 
With just one smile, you take my breath away 
So hold me close 
And say you'll stay with me now 


CHORUS 2: 
              B               Em 
The closer I get to touching you
              A7           D7 
The closer I get to loving you 
           G
Give it a time
                    C 
Just a little more time
             Am     D7 
We'll be together 
               B
Every little smile
              Em 
That special smile
                    A7 
The twinkle in your eye 
             D7
In a little while
           G
Give it a time 
                    C
Just a little more time
               Am     D7 
So we can get closer
        G  F#m7/D  Em  Dsus  C  D
You and I 


-----------------------------------------------------------------------------

                                 ENJOY!!
                                 PEACE!!

-----------------------------------------------------------------------------

            
            
Suggest correction
Creating personal tab
Creating personal tab
You can edit any tab online and save it as your Personal.

You can edit, replace or remove any tab part or add personal notes – all changes will be seen only by you.

Personal tabs can be accessed anytime from any device, even offline.
Learn more »
Give kudos to tab author, rate the tab!
1 2 3 4 5
comments
print report bad tab
1 comment total.
0 reply
ryan.paredes.73 10 Apr 17, 2014 06:04 PM

nice one!!!

guest
You may want to rate the tab now too:
select rating
Wanna post a correction for this tab? Suggest correction