Oops, an error
Loading. Please wait.

Coda Tab

205 views 3 this week
no commentswrite comment
1 2 3 4 5
3 more votes to show rating
add to favorites
launch autoscroll
font size
0
reset
how to read this tab
guitar tuner
Autoscroll
slow
fast
+/-
esc
set tempo
stop
Help us to improve Ultimate-Guitar.com Take our survey!
×
Author
Difficulty
Tuning
novice
D# G# C# F# A# D#
@Monstoy Guitar
Check out my video tutorial of this tab on my YouTube channel:
https://youtu.be/1NHGH_SN9SM


[Guitar Solo]

e|------------------------------------------------|
B|------------------------------------------------|
G|------------------------------------------------|
D|------------------------------------------------|
A|----/9-7-6-4/6-7-6\2-2/4------------------------|
E|------------------------------------------------|

e|------------------------------------------------|
B|------------------------------------------------|
G|--------4---4-4---4--4-----4-6-6brbp4-4---------|
D|----4h6---6-----6------6-6----------------------|
A|------------------------------------------------|
E|------------------------------------------------|

e|----4-4/7--4-4/7--------------------------------|
B|----4-4/7--4-4/7--------------------------------|
G|------------------------------------------------|
D|------------------------------------------------|
A|------------------------------------------------|
E|------------------------------------------------|

e|---------12----11-------------------------------|
B|----7/12----12----14----14fb-14-12-12-----------|
G|---------------------11-------------------------|
D|------------------------------------------------|
A|------------------------------------------------|
E|------------------------------------------------|

e|----------------------14------------------------|
B|----------14-16-16----16------------------------|
G|-------------16-16------------------------------|
D|----13/16----------13---------------------------|
A|------------------------------------------------|
E|------------------------------------------------|



************************************

| h    Hammer-on
| /    Slide up
| \    Slide down
| br   bend release
| bp   bend palm mute

************************************
Suggest correction
Give kudos to tab author, rate the tab!
1 2 3 4 5
comments
print report bad tab
guest
You may want to rate the tab now too:
select rating
Wanna post a correction for this tab? Suggest correction