Oops, an error
Loading. Please wait.

Di Na Mababawi Tab

version 2
version 2
30,444 views 9 this week
3 commentsread comments
1 2 3 4 5
accurate
x 1
add to favorites
launch autoscroll
font size
0
reset
how to read this tab
guitar tuner
Tab Pro tools
  • play this tab
  • loop segment
  • change instrument
  • show fretboard
  • metronome
×
Best way to learn
"Di Na Mababawi"
Autoscroll
slow
fast
+/-
esc
set tempo
stop
Contributor
-------------------------------------------------------------------------------
                             'Di Na Mababawi - Spongecola
-------------------------------------------------------------------------------
Tabbed by: Mark Jason R. Soriano
Email: sorianomjason@yahoo.com

Tuning: Standard
 |Strum Upwards|
e|-5-------------------------------------------------------------------------|
B|-5-------------------------------------------------------------------------|
G|-6-------------------------------------------------------------------------|
D|-7-------------------------------------------------------------------------|
A|-7-------------------------------------------------------------------------|
E|-5-------------------------------------------------------------------------|
 
Verse:
                 Bm A     D
 Ngayo'y aking inuunawang pilit
                 Bm         A      D
 Mga pagkukulang kong iyong ginigiit
                Bm    A        D        A
 Sana'y malaman mo na tanging ikaw lamang
        Bm          A
 Ang aking iniintindi

              Bm      A   D
 Nakatanim pa sa'king ala-ala
              Bm    A    D
 Pangako mong mananatili ka
                 Bm     A        D      A
 Kaya't paglisan mo'y naiwan ang pusong ito
         Bm              A
 Na ngayo'y bitin na bitin

Chorus:
  Bm              A
 'Di mo na mababawi iniwang sakit
  D             A
 Sa mga salitang binitiwan mo
  Bm            A                   D
 Hindi ba't ikaw na rin ang nagpasya, nagtakda
            A
 At siyang unang umiwas
  Bm        A               D
 Bakit nga ba ako 'yong pinaasa?

Verse 2:
                  Bm     A        D
 Nasa aking guniguni malamig mong tinig
                    Bm   A    D
 Kasabay ng hanging na dumarampi
                 Bm     A      D       A
 Na para bang ika'y nariyan sa aking paligid
     Bm              A
 Tahimik na nagmamasid

*Repeat Chorus

then..

Bridge:
  A                    G            Bm
  Nahulog na'ng mga ulap, buwan at araw, mga bituwin
  A                    G                  Bm       
 Ang ginugol na panaho'y na saan? (panaho'y na saan)
           G                      Bm
 'Di ba't sayang naman? (Di ba't sayang naman)
  A
 Giliw yeah yeah yeah yeah

Adlib: Bm-A-D
e|---------3---|---2h3-2-0-2---7-5-3-5--|---2h3-2-0-2------------------------|
B|-----0-3-3---|-3-----------3----------|-3-----------4---6---7--------------|
G|-----0-0-----|------------------------|------------------------------------|
D|-------------|------------------------|------------------------------------|
A|-5-5---------|------------------------|------------------------------------|
E|-------------|------------------------|------------------------------------|

e|-----------10----12----14-15-14-12-------------10-12-10--------------------|
B|-2-3-5-7------10----10-------------14s12----12----------12s14--------------|
G|---------7-------------------------------12-------------12s14--------------|
D|---------------------------------------------------------------------------|
A|---------------------------------------------------------------------------|
E|---------------------------------------------------------------------------|
       
Chorus:
  Bm              A
 'Di mo na mababawi iniwang sakit
  D             A
 Sa mga salitang binitiwan mo
  Bm            A                   D
 Hindi ba't ikaw na rin ang nagpasya, nagtakda
            A
 At siyang unang umiwas
  Bm        A               D
 Bakit nga ba ako 'yong pinaasa?
  Bm        A               D
 Bakit nga ba ako 'yong pinaasa?

-- this tab is 99% accurate, please leave your comments or suggestions.. thx
comments
We did not receive enough feedback on this tab! Please rate:
print report bad tab
1 2 3 4 5
3 comments total.
0 reply
craftoon_1352 wrote on March 23 2009, 02:37 am

di ba may B7 pa sa chorus? at one more mali po chors nyo sa chorus, G-A-Bm-D tapus heto yung chords sa next line ng chorus, G-A-Bm-B7 tapus ulitin nyo po yung chords ng 1st line ng chorus

0 reply
craftoon_1352 wrote on March 23 2009, 02:38 am

di ba may B7 pa sa chorus? at one more mali po chors nyo sa chorus, G-A-Bm-D tapus heto yung chords sa next line ng chorus, G-A-Bm-B7 tapus ulitin nyo po yung chords ng 1st line ng chorus

0 reply
marc galao wrote on April 14 2009, 12:27 am

pakilagay nman ung struming patern nya

I want to post or [tab]
guest
You may want to rate the tab now too:
select rating
Please do not post tabs as comments. Select "correction" instead!