Oops, an error
Loading. Please wait.

Di Na Mababawi Tab

version 3
version 3
14,150 views 3 this week
no commentswrite comment
1 2 3 4 5
please rate
add to favorites
launch autoscroll
font size
0
reset
how to read this tab
guitar tuner
Autoscroll
slow
fast
+/-
esc
set tempo
stop
Help us to improve Ultimate-Guitar.com Take our survey!
×
Author
Di Na Mababawi
Sponge Cola

e|-5~-------------|
B|--3~------------|
G|---4~-----------|
D|----4~----------|
A|-----2~---------|
E|----------------|


Intro- B7sus4 

Verse-
          Bm    A      D
Ngayo'y aking inuunawang pilit
 D                Bm      A    D
Mga pagkukulang kong iyong ginigiit
D             Bm       A       D       D/C#
Sana'y malaman mo, na tanging ikaw lamang
      Bm         A
Ang aking iniintindi,

do verse-
nakatanim pa  sa'king ala-ala
Pangako mong manantili ka
Kaya't paglisan mo'y naiwan, ang pusong ito na ngayo'y
Bitin na bitin

Chorus:

  G             A                  Bm
Hindi mo na mababawi, iniwang sakit
Bm          D7             G
Sa mga salitang binitiwan mo
G             A                    Bm
Hindi ba't ikaw na rin, ang nagpasya, nagtakda
             B7         G          A             Bm
At s'yang unang umiwas, bakit nga ba ako'y yong pinaasa?

Do Verse Chords
Nasa king guni-guni, malamig mong tinig
Kasabay ng hagin na dumarampi
Na para bang ika'y nariyan, sa aking paligid
Tahimik na nagmamasid

Do chorus


Bridge

Bm A                  G              Bm             A
  Nahulog na'ng mga ulap, buwan at araw, mga bituin
A                   G           Bm
Ang ginugol na panaho'y nasaan?
         G      Bm   A
Di ba't sayang naman Giliw?

Yeah,,Yeah,,Yeah

Solo-
G ...  Bm A D 3x Bm A

e|---------------7--5---5---|--------------7---5---5------------|
B|---7/8-7---7---7--5-8-5---|---7/8-7------7---5---5------------|
G|--7------9--------6---7---|--7------9-7-----6---7-------------|
D|-------------9------------|-------------9---------------------|
A|--------------------------|-----------------------------------|
E|--------------------------|-----------------------------------|

e|----------------10-12----1514------------12--10--12-10---------------|
B|---------7-10----------------15-15/12--12-------------12\14-----14---|
G|-----7-9------7---9---11-------------12---------------12\14---14-----|
D|------------------------------------------------------------14-------|
A|---------------------------------------------------------------------|
E|---------------------------------------------------------------------|
Suggest correction
What's this?
You can suggest a correction to this tab. Community and Mods will review your correction and vote to approve or reject it.
comments
We did not receive enough feedback on this tab! Please rate:
print report bad tab
1 2 3 4 5
guest
You may want to rate the tab now too:
select rating
Please do not post tabs as comments. Select "correction" instead!