Oops, an error
Loading. Please wait.

Di Na Mababawi Tab

version 4
version 4
8,945 views 1 this week
1 commentread comment
1 2 3 4 5
2 more votes to show rating
add to favorites
launch autoscroll
font size
0
reset
how to read this tab
guitar tuner
Autoscroll
slow
fast
+/-
esc
set tempo
stop
Help us to improve Ultimate-Guitar.com Take our survey!
×
Author
-------------------------------------------------------------------------------
                             Di Na Mababawi - Sponge Cola
-------------------------------------------------------------------------------
Tabbed by: Jomar Ebuenga
Email: th0inkz@yahoo.com

Tuning: Standard

e|-------------3-----------------------5-------------------------5----------|
B|---------3---3-----7h8p7----------7----7-7-----7h8p7-------7---5-5--------|
G|-------0---0-----7-------9-9/11---7--6---7---7-------9-7---7-6---7--------|
D|-----0--------------------------9------------------------9----------------|
A|--------------------------------------------------------------------------|
E|---3----------------------------------------------------------------------|

e|-----------------12----14----14-15-14-----9\7----7-10--12\10--------------|
B|------------10------10----10-15-15-15-15--10\8-8-------------12/14-----14-|
G|---7-9-9/11----9----------------------14---------------------12/14---14---|
D|-------------------------------------------------------------------14-----|
A|--------------------------------------------------------------------------|
E|--------------------------------------------------------------------------|


| /  slide up
| \  slide down
| h  hammer-on
| p  pull-off
| ~  vibrato
| +  harmonic
| x  Mute note
===============================================================================
Suggest correction
Give kudos to tab author, rate the tab!
1 2 3 4 5
comments
print report bad tab
1 comment total.
0 reply
hillraiser 10 Jun 12, 2009 10:23 AM

nice one!

guest
You may want to rate the tab now too:
select rating
Wanna post a correction for this tab? Suggest correction