Oops, an error
Loading. Please wait.

Di Na Mababawi Tab

version 7
version 7
2,001 views 6 this week
no commentswrite comment
1 2 3 4 5
please rate
add to favorites
launch autoscroll
font size
0
reset
how to read this tab
guitar tuner
Autoscroll
slow
fast
+/-
esc
set tempo
stop
Help us to improve Ultimate-Guitar.com Take our survey!
×
Author
Tuning
D# G# C# F# A# D#
Tuning - Half Step Down

This is Di Na Mababawi (Band Version)
Artist: Spongecola
Album: Sponge Cola (Bonus CD)

Intro

Guitar 1 : Bm A D (2x) 1 strum each

eb|------------------------------------------|
Bb|--------------2h3----------------2h3-2-0--|
Gb|--0--2--2--4---------0--2--2--4-----------|
Db|------------------------------------------|
Ab|------------------------------------------|
Eb|------------------------------------------|

Guitar 2 :

eb|---2----0----2----2-----2----0----2----2--------------------------|
Bb|---3----2----3----3-----3----2----3----3--------------------------|
Gb|---4----2----2----2-----4----2----2----2--------------------------|  (2x)
Db|-----------0----0---------------0----0----------------------------|
Ab|-2----0---------------2----0--------------------------------------|
Eb|------------------------------------------------------------------|

eb|---2----0----2----2----2-----------0-----------------|
Bb|---3----2----3----3----3--3--------2-----------------|
Gb|---4----2----2----2----4----4------2-----------------|  
Db|-----------0----0-------------4----2-----------------|
Ab|-2----0--------------2-------------0-----------------|
Eb|-----------------------------------------------------|

Verse:

Guitar 1: Hindi ko makapa

Guitar 2:

eb|---2----0----2----2-----2----0----2----2--------------------------|
Bb|---3----2----3----3-----3----2----3----3--------------------------|
Gb|---4----2----2----2-----4----2----2----2--------------------------|
Db|-----------0----0---------------0----0----------------------------|
Ab|-2----0---------------2----0--------------------------------------|
Eb|------------------------------------------------------------------|

eb|---2----0----2----2----2-----------0-----------------|
Bb|---3----2----3----3----3--3--------2-----------------|
Gb|---4----2----2----2----4----4------2-----------------|  
Db|-----------0----0-------------4----2-----------------|
Ab|-2----0--------------2-------------0-----------------|
Eb|-----------------------------------------------------|

eb|---2----0----2----2-----2----0----2----2--------------------------|
Bb|---3----2----3----3-----3----2----3----3--------------------------|
Gb|---4----2----2----2-----4----2----2----2--------------------------|
Db|-----------0----0---------------0----0----------------------------|
Ab|-2----0---------------2----0--------------------------------------|
Eb|------------------------------------------------------------------|

eb|---2----0----2----2----2-----------0-----------------|
Bb|---3----2----3----3----3--3--------2-----------------|
Gb|---4----2----2----2----4----4------2-----------------|  
Db|-----------0----0-------------4----2-----------------|
Ab|-2----0--------------2-------------0-----------------|
Eb|-----------------------------------------------------|

Chorus:

eb|--3---3--0---0--2---2--2---2---------------|
Bb|--3-x-3--2-x-2--3-x-3--1-x-1---------------|
Gb|--0-x-0--2-x-2--4-x-4--2-x-2---------------|
Db|--0-x-0--2-x-2--4-x-4--0-x-0---------------|
Ab|--2---2--0---0--2---2----------------------|
Eb|--3---3------------------------------------|

eb|--3---3--0---0--2---2-------2--2--2--2--2---------|
Bb|--3-x-3--2-x-2--3-x-3-------3--3--3--3--3---------|
Gb|--0-x-0--2-x-2--4-x-4-------2--2--2--2--2---------|
Db|--0-x-0--2-x-2--4-x-4-------3--3--3--3--3---------|
Ab|--2---2--0---0--2---2-------2--2--2--2--2---------|
Eb|--3---3-------------------------------------------|

eb|--3---3--0---0--2---2-----------------|
Bb|--3-x-3--2-x-2--3-x-3-----------------|
Gb|--0-x-0--2-x-2--4-x-4-----------------|
Db|--0-x-0--2-x-2--4-x-4-----------------|
Ab|--2---2--0---0--2---2-----------------|
Eb|--3---3-------------------------------|

Verse 2:

Guitar 1: Hindi ko rin makapa

Guitar 2:

eb|---2----0----2----2-----2----0----2----2--------------------------|
Bb|---3----2----3----3-----3----2----3----3--------------------------|
Gb|---4----2----2----2-----4----2----2----2--------------------------|
Db|-----------0----0---------------0----0----------------------------|
Ab|-2----0---------------2----0--------------------------------------|
Eb|------------------------------------------------------------------|

eb|---2----0----2----2----2-----------0-----------------|
Bb|---3----2----3----3----3--3--------2-----------------|
Gb|---4----2----2----2----4----4------2-----------------|  
Db|-----------0----0-------------4----2-----------------|
Ab|-2----0--------------2-------------0-----------------|
Eb|-----------------------------------------------------|

Chorus:

eb|--3---3--0---0--2---2--2---2---------------|
Bb|--3-x-3--2-x-2--3-x-3--1-x-1---------------|
Gb|--0-x-0--2-x-2--4-x-4--2-x-2---------------|
Db|--0-x-0--2-x-2--4-x-4--0-x-0---------------|
Ab|--2---2--0---0--2---2----------------------|
Eb|--3---3------------------------------------|

eb|--3---3--0---0--2---2-------2--2--2--2--2---------|
Bb|--3-x-3--2-x-2--3-x-3-------3--3--3--3--3---------|
Gb|--0-x-0--2-x-2--4-x-4-------2--2--2--2--2---------|
Db|--0-x-0--2-x-2--4-x-4-------3--3--3--3--3---------|
Ab|--2---2--0---0--2---2-------2--2--2--2--2---------|
Eb|--3---3-------------------------------------------|

eb|--3---3--0---0--2---2-----------------|
Bb|--3-x-3--2-x-2--3-x-3-----------------|
Gb|--0-x-0--2-x-2--4-x-4-----------------|
Db|--0-x-0--2-x-2--4-x-4-----------------|
Ab|--2---2--0---0--2---2-----------------|
Eb|--3---3-------------------------------|

Bridge-Bm
       A G Bm
       A G Bm 
       G Bm A

Solo:

eb|--------3~--------------------------5---5--|--------------|
Bb|--------3~----7h8p--7---7------7----5-7-5--|---7h8p7-7----|
Gb|----4-4------7--------9--------7------7----|--7--------9-7|
Db|---5-5-----------------------9-------------|--------------|
Ab|--5----------------------------------------|--------------|
Eb|3------------------------------------------|--------------|

eb|------5--------------------10-----12------14-15-14--10-9----|
Bb|--7---5------------7-10-------10-----10---15-15-15--10-10---|
Gb|--7-6--7-------7-9------7-----------------------------------|
Db|9-----------------------------------------------------------|
Ab|------------------------------------------------------------|
Eb|------------------------------------------------------------|

eb|-------10~--12-10-------------------------------------------|
Bb|----12------------12/14------14~----------------------------|
Gb|-12---------------12/14----14~------------------------------|
Db|-------------------------14~--------------------------------|
Ab|------------------------------------------------------------|
Eb|------------------------------------------------------------|



Chorus:

G A Bm D7
G A Bm B7
G A Bm
G A Bm

Comment nyu na lng yng mga mali and kung may iba pa kau suggestions :)
Feel free to use any words :)
Suggest correction
What's this?
You can suggest a correction to this tab. Community and Mods will review your correction and vote to approve or reject it.
comments
We did not receive enough feedback on this tab! Please rate:
print report bad tab
1 2 3 4 5
guest
You may want to rate the tab now too:
select rating
Please do not post tabs as comments. Select "correction" instead!