Oops, an error
Loading. Please wait.

Jeepney Tab

version 5
version 5

Whole song

7,975 views 3 this week
5 commentsread comments
1 2 3 4 5
accurate
x 9
add to favorites
launch autoscroll
font size
0
reset
how to read this tab
guitar tuner
Autoscroll
slow
fast
+/-
esc
set tempo
stop
Help us to improve Ultimate-Guitar.com Take our survey!
×
Author
Jeepney
Sponge Cola
Palabas

Guitar 1: (chords)
  D   G   A   Em
e-2-|-3-|-0-|-0-|
B-3-|-3-|-2-|-0-|
G-2-|-0-|-2-|-0-|
D-0-|-0-|-2-|-2-|
A-x-|-2-|-0-|-2-|
E-x-|-3-|-x-|-0-|

Verse 1: rhythm guitar
e---2----2-3----3-2----2-3-|
B---3----3-3----3-3----3-3-|
G---2----2-0----0-2----2-0-|
D---0----0-0----0-0----0-0-|
A---x----x-2----2-x----x-2-|
E---x----x-3----3-x----x-3-|

e-3-2----2-3----3-2-2---2-3-|
B-3-3----3-3----3-3--3--3-3-|
G-0-2----2-0----0-2-----2-0-|
D-0-0----0-0----0-0-----0-0-|
A-2-x----x-2----2-x-----x-2-|
E-3-x----x-3----3-x-----x-3-|

Verse 1: (listen on how it goes)
D (pause)      G (pause)
Bumaba ako sa jeepney
D (pause)      G (pause)
Kung saan tayo dating nagkatabi
D (pause)                G (pause)
Magkahalik ang pisngi nating dalawa
D (pause)     G (pause)
Nating dalawa

Verse 2: (strum) (listen for the strumming nalang)
D                 G
Panyo mo sa aking bulsa
D              G
Ang kahapon ay naroon pa rin
D            G
Tawa nating humahalay
D               G
Sa init nating dalawa

Refrain:
G            A     G             A
Subalit ngayo'y wala na... (wala na...)
G     A       G             A
Ikaw ay lumayo na... (lumayo na...)

Chorus:
D          A           Em          G
Naaalala ko ang mga gabing nakahiga sa ilalim ng kalawakan
D          A           Em          G
Naaalala ko ang mga gabing magkatabi sa ulan

Interlude: D-G (2x)

Verse 3:
D           G
Kulay ng iyong ngiti
D              G
At tikwas ng iyong buhok
D                  G
Ang lambot ng iyong labi
          D   -   G
Ng iyong labi

Verse 4:
D                 G
Kahit anino mo sa malayo
D           G
Ay nais masulyapan ka
D        G    D       G
Upang mapawi ang lamig

(Repeat Refrain)
(Repeat Chorus 2x)

Interlude/Adlib: D-G (4x)

Bridge:
Note: (strum once on the first three chords. Ung last chords strum niyo papunta sa Chorus)
-------(no guitars)-------
Subalit ngayo'y wala na...
G    A       G           A
Ikaw ay lumayo na.. lumayo na...

(Repeat Chorus 4x)

Outro:
(Naaalala, naaalala...) Magkatabi sa ulan
(Naaalala, naaalala...) Dungawin ang araw
(Naaalala, naaalala...) (4x)

-----------------------------------------------------------------------
Guitar 2:
Verse 1 & 2: (walang lead guitar dito)

Refrain: (effects: distortion)
     G        A
e-------------------|
B-------------------|
G-------------------|
D-55555555-77777777-| 4x
A-55555555-77777777-|
E-33333333-55555555-|


Chorus: (effects: distortion) (just listen to strumming pattern nalang.
Basta downstroke lang ung chords na D-A-G. Ung Em iba yung ka-strum.)
     D        A         Em       G
e--------------------------------------|
B--------------------------------------|
G-77777777-----------------------------|
D-77777777-77777777--22222222-55555555-| 2x
A-55555555-77777777--22222222-55555555-|
E----------55555555--00000000-33333333-|

Interlude:
Guitar 2:
e-------------------------0-------|
B-----3---2h3---3-----3-----3---2-|
G---2---2-----2-----2---2-----2---|
D-0---------------0---------------| 2x
A---------------------------------|
E---------------------------------|

Verse 3 & 4: (walang lead guitar ulit dito)

Refrain 2:
e------------------------------------------------------------|
B------------------------------------------------------------|
G-----------------------------------------7-7h9h10p9-----7~~-|
D-55555555-77777777-55555555-77777--7-7h9------------9-7-----|
A-55555555-77777777-55555555-77777---------------------------|
E-33333333-55555555-33333333-55555---------------------------|

e----------------------------14b-14b-14b-14b-14bb-|
B-------------------------------------------------|
G-------------------------------------------------|
D-55555555-77777777-55555555----------------------|
A-55555555-77777777-55555555----------------------|
E-33333333-55555555-33333333----------------------|

(Repeat Chorus)

Adlib: (clean)
e-------------------------0-------|
B-----3---2h3---3-----3-----3---2-|
G---2---2-----2-----2---2-----2---|
D-0---------------0---------------| 4x
A---------------------------------|
E---------------------------------|

Bridge:
--------(no guitar)-------
Subalit ngayo'y wala na...
Guitar 2:
e--------------------------------------|
B--------------------------------------|
G--------------------------------------|
D----(guitar 1 yung------------777777--|
A-----gumagawa dito)-----------777777--|
E------------------------------555555--|
  ....Ikaw   ay  lumayo na... lumayo na....

Last Chorus: (4x) (effects: distortion) (pakinggan niyo ung pag-prolong ng mga chords 
ung first two chords lang) (depende sa inyo kung saan maganda. Pwede naman yung gaya ng 
Chorus)
  D        A             Em       G
e---------------------------------------|
B---------------------------------------|
G-7~~~---77-----------------------------|
D-7~~~---77-7~~~---77-22222222-55555555-| 4x
A-5~~~---55-7~~~---77-22222222-55555555-|
E-----------5~~~---55-00000000-33333333-|

Outro: (clean)
e-------------------------0-------|
B-----3---2h3---3-----3-----3---2-|
G---2---2-----2-----2---2-----2---|
D-0---------------0---------------| 3x
A---------------------------------|
E---------------------------------|

Then:
e-------------------------0-----|
B-----3---2h3---3-----3-----3~~-|
G---2---2-----2-----2---2-------|
D-0---------------0-------------|
A-------------------------------|
E-------------------------------|

-----------------------------------------------------------------------
I think this is absolutely correct (yata). Para sa akin ok naman ito. Tumutono naman 
yata. Ito ung ginagamit ko sa tuwing may tugtog kami. Paki-rate nalang po. Tama naman yata 
Enjoy!

Kumusta sa mga kabanda ko dito sa Tacloban, ang "FIGURE05": Gil, Richard, Christian, 
& Philip..

For comments & suggestions: cicatrix17@yahoo.com

[ C!c@tr!x ]
Christopher Co (FIGURE05)
V&G Subd., Tacloban City
Suggest correction
What's this?
You can suggest a correction to this tab. Community and Mods will review your correction and vote to approve or reject it.
comments
print report bad tab
5 comments total. Showing first comments.
0 reply
aL13 532 wrote on May 14 2006, 12:22 pm

nice tab..nice name too...hehe..:)

0 reply
chamir 209 wrote on December 19 2006, 06:28 pm

tol tama ung chords mali ata ung lead

rythm kba seniu??

0 reply
jonas_ling18 19 wrote on July 6 2007, 06:46 am

tol mali nga yung lead tapos yung plucking sa adlib may konting mali din. pero most parts of this tab eh correct naman.

guest
You may want to rate the tab now too:
select rating
Please do not post tabs as comments. Select "correction" instead!