Oops, an error
Loading. Please wait.

Kay Tagal Kitang Hinintay Chords

version 1
version 1

Acoustic

Whole song

36,307 views 39 this week
no commentswrite comment
1 2 3 4 5
1 last vote to show rating
add to favorites
launch autoscroll
font size
0
reset
transpose
0
reset
display chords
guitar tuner
×
Best way to learn
"Kay Tagal Kitang Hinintay"
Autoscroll
slow
fast
+/-
esc
set tempo
stop
Author
Difficulty
  follow
intermediate
[Intro/Verse 1] (x2)

    E                      G#m
e|-----------------------------------------------------------------------|
b|---------9-----------9---------------12-------------------12-----------|
g|------9---9--9-----9---9--9-------13------13---13------13-----13---13--|
d|----9--9---9-----9--9---9-------13--13-------13------13--13------13----|
a|--7------------7-----------7-7/11------------------11------------------|
e|-----------------------------------------------------------------------|

   C#m                          B
e|-----------------------------------------------------------|
b|----------9------------9-------------7-------------7-------|
g|------9----9--9----9----9---9-----8----8--8-----8----8---8-|
d|---11--11---11---11--11---11----9--9-----9----9--9-----9---|
a|-----------------------------------------------------------|
e|-9-------------9--------------7-------------7--------------|

   A                         E                          C#m
e|-----------------------------------------------------------------------------------|
b|---------5-----------5------------9-------------9-----------9------------9---------|
g|-----6----6-6-----6----6-6------9---9-9------9---9--9-----9---9--9----9-----9----9-|
d|---7--7----7----7--7----7-----9--9---9-----9--9----9----11-11--11---11-11-----11---|
a|---------------------------7-------------7-----------------------------------------|
e|-5-----------5----------------------------------------9-----------9----------------|

   B
e|--------------------------------------|
b|----------7------------7--------------|
g|------8----8-------8----8-------------|
d|----9--9----9----9--9----9------------|
a|--------------------------------------|
e|-7-------------7----------------------|

[Refrain 1]
   A                         B                            (repeat)
e|--------------------------------------------------------|
b|--------5-----------5--------------7-------------7------|
g|-----6---6--6----6---6--6------8----8--8-----8----8--8--|
d|---7--7---7----7--7---7------9---9---9-----9--9----9----|
a|--------------------------------------------------------|
e|-5-----------5-------------7-------------7--------------|

[Verse 1]
E                      G#m
Hawakan mo ang aking kamay
              C#m                   B
At tayong dalawa'y maghahasik ng kaligayahan
A                      E
Bitawan mong unang salita
          C#m               B
Ako ay handa ng tumapak sa lupa
E                    G#m
Tapos na ang paghihintay
         C#m                     B
Nandito kana’t oras ay naiinip magdahan-dahan
A                    E
Sinasamsam bawat gunita
             C#m               B
Na para bang tayo'y di na tatanda

[Refrain 1]
   A                B
Ligaya mo'y nasa huli
    A                   B
Sambit na ng ‘yong mga labi

[Chorus 1] 
(just pluck entire chords)
E               C#m
Parang isang panaginip
       A            B
Ang muling mapagbigyan
C#m                E
Tayo'y muling magkasama
     A             B
Ang dati ay balewala

[Interlude]
E-G#m-C#m-B

[Verse]
E                        G#m          C#m
Nagkita rin ang ating landas ,wala ng iba
                    B               A
Akong hinihiling kundi ika'y pagmasdan
                       E
Mundo ko ay ‘yong niyanig
            C#m                   B
Oh anong ligayang ‘kay sumama sa akin

[Refrain 2]
A                 B
Nais ko lang humimbing
   A              B
Sa saliw ng iyong tinig

[Chorus 2]
E                C#m
Parang isang panaginip
       A           B
Ang muling mapagbigyan
C#m                E
Tayo'y muling magkasama
    A             B
Ang dati ay balewala
E               C#m
Panatag na’ng kalooban ko
     A               B
At ika'y kapiling ko na
          A               B
Oh kay tagal kitang hinintay
          A               B
Oh kay tagal kitang hinintay

[Adlib] 
(im still working on it but here are the chords beyond the solo)
E-G#m-C#m-B-A-E-C#m-B

[Refrain 3]
A                  B
Ligaya mo'y nasa huli
    A                   B
Sambit na ng iyong mga labi

[Chorus 3]
E                C#m
Parang isang panaginip
       A           B
Ang muling mapagbigyan
C#m                E
Tayo'y muling magkasama
     A            B
Ang dati ay balewala...
     A            B
Ang dati ay balewala

[Chorus 2]
E                C#m
Parang isang panaginip
       A           B
Ang muling mapagbigyan
C#m                E
Tayo'y muling magkasama
    A             B
Ang dati ay balewala
E               C#m
Panatag na’ng kalooban ko
     A               B
At ika'y kapiling ko na
          A               B
Oh kay tagal kitang hinintay
          A               B
Oh kay tagal kitang hinintay
Suggest correction
Give kudos to tab author, rate the tab!
1 2 3 4 5
comments
print report bad tab
guest
You may want to rate the tab now too:
select rating
Wanna post a correction for this tab? Suggest correction