Oops, an error
Loading. Please wait.

Kay Tagal Kitang Hinintay tab

version 4
version 4

Interactive

25,866 views 30 this week
2 commentsread comments
1 2 3 4 5
2 more votes to show rating
add to favorites
×
Save as Personal and add changes to this tab that will be seen only by you. Learn more ›
×
You can save this tab as Personal to edit and correct it or add notes. All changes will be seen only by you. Learn more »
launch autoscroll
font size
0
reset
how to read this tab
guitar tuner
edit
Autoscroll
slow
fast
+/-
esc
set tempo
stop
Author
Difficulty
|========================================================================|
|        Kay Tagal Kitang Hinintay (Acoustic Version) - Sponge Cola      |
|========================================================================|
Tabbed by: Ericson Ornales
Email: ericson_ornales@yahoo.com or ornalesericson@yahoo.com
Tuning: Standard
Updated last January 13,2012

|======================================================================|
|  guys,,ito na ung tab ng acoustic version ng kantang to.i'm sure     |                         
|  'bout dis one.nkita ko to dun sa video n ginawa mismo ng Sponge     |
|  Cola hope you'll like this one.pero ung sa adlib,di ko ginawa ung   |
|  nasa video,ang ginawa ko ay kung paano ko un tugtugin..             |
|                                                                      |
|  for comments,post lng kau sa Fb ko..tnx                             |
|                                                                      |     
|======================================================================|


|======|
|Intro:| 
|======|


  F    Dm    Bb    C    DmF  Bb  C
|-5----5----------------10---8---------------|
|-6-6--6-6---6-----8----10---5--6---8--------|
|-5--5-7--7--7-7---9----10---5--7---9--------|
|------------8--8--10-----------7---10-------|
|--------------------------------------------|
|--------------------------------------------|

|======|
|Verse:|
|======|

First part: Hawakan mo ........

           F                     Am
|----------------------------------------------------------|
|--10-10-10-10-10-10-10--13--13--13--13--13--13--13--------|
|----------------------------------------------------------|
|----------------------------------------------------------|
|-8--8--8--8--8--8--8--12--12--12--12--12--12--12----------|
|----------------------------------------------------------|

Dm            C
|-------------------------------------------|
|--6-6-6-6-6-6-6-5-5-5-5-5-5-5--------------|
|-------------------------------------------|
|-------------------------------------------|
|-5-5-5-5-5-5-5-3-3-3-3-3-3-3---------------|
|-------------------------------------------|


       Bb           F
|-------------------------------------------|
|--3-3-3-3-3-3-3-1-1-1-1-1-1-1--------------|
|-------------------------------------------|
|-------------------------------------------|
|-1-1-1-1-1-1-1-3-3-3-3-3-3-3---------------|
|-------------------------------------------|

       Dm            C
|-------------------------------------------|
|--6-6-6-6-6-6-6-5-5-5-5-5-5-5--------------|
|-------------------------------------------|
|-------------------------------------------|
|-5-5-5-5-5-5-5-3-3-3-3-3-3-3---------------|
|-------------------------------------------|

Second part: Bitawanmong ......

           F                     Am
|----------------------------------------------------------|
|--10-10-10-10-10-10-10--13--13--13--13--13--13--13--------|
|----------------------------------------------------------|
|----------------------------------------------------------|
|-8--8--8--8--8--8--8--12--12--12--12--12--12--12----------|
|----------------------------------------------------------|

      Dm            C
|-------------------------------------------|
|--6-6-6-6-6-6-6-5-5-5-5-5-5-5--------------|
|-------------------------------------------|
|-------------------------------------------|
|-5-5-5-5-5-5-5-3-3-3-3-3-3-3---------------|
|-------------------------------------------|

       Bb           F
|-------------------------------------------|
|--3-3-3-3-3-3-3-1-1-1-1-1-1-1--------------|
|-------------------------------------------|
|-------------------------------------------|
|-1-1-1-1-1-1-1-3-3-3-3-3-3-3---------------|
|-------------------------------------------|

Dm            C
|-------------------------------------------|
|--6-6-6-6-6-6-6-5-5-5-5-5-5-5--------------|
|-------------------------------------------|
|-------------------------------------------|
|-5-5-5-5-5-5-5-3-3-3-3-3-3-3---------------|
|-------------------------------------------|


|========|
|Refrain:|
|========|
 
     Bb        C         Bb      C
|-------------------------------------------|
|--3-3-3-3-3-5-5-5-5-5-3-3-3-3-3-1-1--------|
|-------------------------------------------|
|-------------------------------------------|
|-1-1-1-1-1-3-3-3-3-3-1-1-1-1-1-3-3---------|
|-------------------------------------------|

|=======|
|Chorus:| ung sa part na 'to, strum nyo na lang na mejo mabagal... 
|=======|

F                Dm
Parang isang panaginip

        Bb         C
Ang muling mapagbigyan

Dm                 F
Tayo’y muling magkasama

    Bb           C
Ang dati ay balewala

|=============|
|Instrumental:| (strum softly) F-Am-Dm-C
|=============|


|========|
|Verse 2:|
|========|


    F                    Am
Nagkita rin ang ating landas

Dm
Wala nang iba

                     C              Bb
Akong hinihiling kundi ika’y pagmasdan

                        F
Mundo ko ang ‘yong niyanig

Dm                   C
O anong ligayang ‘kay sumama sa akin


|========|
|Refrain:|
|========|


Bb                C
Nais ko lang humiling

    Bb             C
Sa saliw nang iyong tinig


|=======|
|Chorus:|
|=======|


F                Dm
Parang isang panaginip

        Bb          C
Ang muling mapagbigyan

Dm                  F
Tayo’y muling magkasama



|----------------|
|----------------|
|--2-3-2-0-------| ====>gwin nyu to sa part na "Tayo’y muling
|----------------|       magkasama".Pagkatapos nung riff,chord
|----------------|       "F".gnitodn ung sa last chorus.
|----------------|


        Bb         C
Ang dati ay balewala

F       Dm              Bb
Panatag ng kalooban ko ang ika’y

             C
Kapiling ko na

    Bb                     C
O kay tagal kitang hinintay

    Bb                   C
O kay tagal kitang hinintay………


|======|
|Adlib:|
|======|


|---------------------------15-12-13-13--------|
|-10-10-10-8-10-11-13-13-13--------------------|
|-10-10-10-------------------------------------|
|----------------------------------------------|
|----------------------------------------------|
|----------------------------------------------|

|--------------------------------------13b-----|
|-13/15-13---------------------10h11/13--------|
|---------12/14-12--------10h12----------------|
|--------------------10h12---------------------|
|-----------------10h12------------------------|
|----------------------------------------------|

|---------------------------------13b----------|
|----------------6-6-8/11-10-------------------|
|-----5h7p5-5-7---9----10-10-12-10-------------|
|-5h7------9-----------------------------------|
|----------------------------------------------|
|----------------------------------------------|

|-13-17-13-12-13-15----------------------------|
|-------------------8-10-8\6-6h8/10-8----------|
|----------------------------------------------|
|----------------------------------------------|
|----------------------------------------------|
|----------------------------------------------|

|=======|
|Bridge:|
|=======|


Bb                 C
Ligayang noo’y nasa huli

Bb                     C
Sambit nang ‘yong mga labi


|=======|
|Chorus:| ===>sa part na to,ito ung gagamitin nyung chord patterns.
|=======|


  F    Dm    Bb    C   Dm   F  Bb  C
|-5----5---------------10---8---------------|
|-6----6-----6----8----10---5--6---8--------|
|-5----7-----7----9----10---5--7---9--------|
|------------8----10-----------7---10-------|
|-------------------------------------------|
|-------------------------------------------|

F                Dm
Parang isang panaginip

       Bb        C
Ang muling mapagbigyan

Dm         F
Tayo’y muling magkasama

     Bb          C
Ang dati ay balewala

                  Bb
Angdati ay balewala


(sa tapat na to,tuloy tuloy na ung strum)


F                  Dm
Parang isang panaginip

       Bb           C
Ang muling mapagbigyan

Dm                   F
Tayo’y muling magkasama

     Bb          C
Ang dati ay balewala

F            Dm            Bb
Panatag ng kalooban ko ang ika’y

             C
Kapiling ko na

        Bb               C
O kay tagal kitang hinintay

        Bb                C
O kay tagal kitang hinintay….

     |===============================================================|
     | guys,pwede rin ito ang gawin nyo dun sa original version nito.| 
     | ung adlib mejo me konting dagdag lang.kayo na bahala dun.     |
     | madali lng naman un.comment n lng kau if u like dis tab.tnx   |
     |===============================================================|

            
            
Suggest correction
Creating personal tab
Creating personal tab
You can edit any tab online and save it as your Personal.

You can edit, replace or remove any tab part or add personal notes – all changes will be seen only by you.

Personal tabs can be accessed anytime from any device, even offline.
Learn more »
Give kudos to tab author, rate the tab!
1 2 3 4 5
comments
print report bad tab
2 comments total.
0 reply
ericsonornales 69 Jan 11, 2012 03:42 AM

guys..itaas nyo ng half step.bale ito n ung chord pattern.

verse: F-Am-Dm-C
Bb-F-Dm-C
refrain: Bb-C (2x)
chorus: F-Dm-Bb-C
Dm-F-Bb-C
F-Am-Dm-C (dun to sa last 2 lines ng chorus w/c is o kay tagal kitang hinintay.
tas dun salead part,taas nyo dn ng half..bale sa 10 kayo magccmula.

0 reply
k_kim_11 10 Jun 09, 2013 03:28 PM

|----------------------------15-12-13-13-------|
|-------------10-11/13-13-13-------------------|
|-10-10-10-12----------------------------------|
|-10-10-10-------------------------------------|
|----------------------------------------------|
|----------------------------------------------|

|----------------------------------------15----|
|-13/15\13----------------------18-------------|
|----------12/14\12-------15-14----14/15-------|
|----------------------------------------------|
|-------------------15/17----------------------|
|----------------------------------------------|

|----------------------------------------------|
|---------6---8---6---5---6/8-8/11-11-10-------|
|-5---5h7---7---5---5---5----------10-10-12-10-|
|---7------------------------------------12-10-|
|----------------------------------------------|
|----------------------------------------------|

|--------13-17-13-12-12-13-15------------------|
|----15b---------------------------------------|
|-10--------------------------12-12h14-12------|
|-10-------------------------------------------|
|----------------------------------------------|
|----------------------------------------------|

Nakita ko lang kasi sa SCTV sa Youtube . Hindi ko sigurado kung tama yung mabilis na part .

guest
You may want to rate the tab now too:
select rating
Wanna post a correction for this tab? Suggest correction