Oops, an error
Loading. Please wait.

Kay Tagal Kitang Hinintay tab

version 7
version 7

Interactive

19,463 views 30 this week
no commentswrite comment
1 2 3 4 5
x 8
add to favorites
×
Save as Personal and add changes to this tab that will be seen only by you. Learn more ›
×
You can save this tab as Personal to edit and correct it or add notes. All changes will be seen only by you. Learn more »
launch autoscroll
font size
0
reset
how to read this tab
guitar tuner
edit
Autoscroll
slow
fast
+/-
esc
set tempo
stop
Author
Difficulty
Title:Kay Tagal Kitang Hinintay
Artist:Spongecola
Tabber: Victor Dela Vega
E-mail:salamander3.0v@gmail.com
Tuning:Standard
(Meron din pong version na Half-step down ang tuning pero standard po ito)
 
 Intro:
  
 E     C#m     A    B    C#m      E    A    B 
|-4-----4-----------------9--9---7--7------------|
|-5-5---5-5---5-----7--7--9-9----4-----5-----7---|
|-4--4--6--6--6-6---8-8---9------4-4---6--6--8---|
|-------------7--7--9------------------7-7---9---|
|------------------------------------------------|
|------------------------------------------------| 

 Verse:
   I
 Hawakan mo ang aking kamay   At tayong dalawa'y
         E                       Abm 
|----------------------------------------------------------|
|---9---9---9---9---9------12---12---12---12---12---12---12|
|----------------------------------------------------------|
|----------------------------------------------------------|
|-7---7---7---7---7------11---11---11---11---11---11---11--|
|----------------------------------------------------------|
 Maghahasik  nang kaligayahan
   C#m                     B
|-------------------------------------------|
|--5---5---5---5---5---4---4---4---4---4----|
|-------------------------------------------|
|-------------------------------------------|
|-4---4---4---4---4---2---2---2---2---2-----|
|-------------------------------------------|
Bitawan mong unang salita    Ako ay handa 
       A                E
|-------------------------------------------|
|--2---2---2---2---2---0---0---0---0---0----|
|-------------------------------------------|
|---------------------2---2---2---2---2-----|
|-0---0---0---0---0-------------------------|
|-------------------------------------------|
 Nang   tumapak   sa   lupa
      C#m                B
|-------------------------------------------|
|--5---5---5---5---5---4---4---4---4---4----|
|-------------------------------------------|
|-------------------------------------------|
|-4---4---4---4---4---3---3---3---3---3-----|
|-------------------------------------------|

 Verse
  II:
Tapos na ang paghihintay     Nandito ka na
   E                             Abm 
|----------------------------------------------------------|
|---9---9---9---9---9------12---12---12---12---12---12---12|
|----------------------------------------------------------|
|----------------------------------------------------------|
|-7---7---7---7---7------11---11---11---11---11---11---11--|
|----------------------------------------------------------|
Oras ay naiinip magdahan-dahan
  C#m                     B
|-------------------------------------------|
|--5---5---5---5---5---4---4---4---4---4----|
|-------------------------------------------|
|-------------------------------------------|
|-4---4---4---4---4---2---2---2---2---2-----|
|-------------------------------------------|
Sinasamsam bawat gunita Na para bang 
       A                E
|-------------------------------------------|
|--2---2---2---2---2---0---0---0---0---0----|
|-------------------------------------------|
|---------------------2---2---2---2---2-----|
|-0---0---0---0---0-------------------------|
|-------------------------------------------|   
Tayo'y     Di na tatanda    
    C#m                 B
|-------------------------------------------|
|--5---5---5---5---5---4---4---4---4---4----|
|-------------------------------------------|
|-------------------------------------------|
|-4---4---4---4---4---3---3---3---3---3-----|
|-------------------------------------------|
 Refrain:
   I
Ligaya noo'y nasa huli  Sambit na nang 'yong mga labi
      A             B       A                    B  
|--------------------------------------------------------|
|--2--2--2--2--2--4--4--4--4--4--2--2--2--2--2--4--4--4--|
|--------------------------------------------------------|
|--------------------------------------------------------|
|-0--0--0--0--0--2--2--2--2--2--0--0--0--0--0--2--2--2---|
|--------------------------------------------------------|

 Chorus: (strum slowly)
   I
 
 E              C#m 
Parang isang panaginip
       A            B               Eto po sa part na "balewala". Slide 
Ang muling mapagbigyan                 nyo lang po yung A sa 4th Fret.
C#m                 E                             A
Tayo'y muling magkasama                    |-----------------|
   A               B                       |-----2/4---------|  
Ang dati ay balewala                       |-----2/4---------|
                                           |-----2/4---------|
Interlude:E-Abm-C#m-B                      |-----------------|
                                           |-----------------|


Verse: 
  E                     Abm            C#m
Nagkita rin ang ating landas wala ng iba
                      B                 A
Akong hinihiling kung 'di ika'y pagmasdan
                       E
Mundo ko ay iyong niyanig
C#m                               B
Oh anung ligayang 'ka'y sumama sa akin

 Refrain:
   II

A                 B
Nais ko lang humimbing
A                 B
Sa saliw ng iyong tinig

 Chorus:
   II

E              C#m 
Parang isang panaginip
       A            B
Ang muling mapagbigyan           Para po ito sa part na "tayo'y muling 
C#m                 E               magkasama".Dito at sa last chorus.       
Tayo'y muling magkasama                          C#m
   A               B                       |---------------|
Ang dati ay balewala                       |---------------|
E                 C#m                      |---------------|
Panatag na'ng kalooban ko                  |----6-7-6------|
       A           B                       |---------------|
at ika'y kapiling ko na                    |---------------|
         A               B
Oh kay tagal kitang hinintay 
         A               B
Oh kay tagal kitang hinintay 

 Interlude: E-Abm-C#m-B-A-E-C#m-B

  Adlib:

|---------------------------14-11-12-12--------|
|--9--9--9-7--9-10-12-12-12--------------------|
|--9--9--9-------------------------------------|
|----------------------------------------------|
|----------------------------------------------|
|----------------------------------------------|

|-----------------------------12-----------14~~|
|-12/14-12---------------10-9------10/12-------|
|---------11/13-11-----------------------------|
|--------------------9h11----------------------|
|----------------------------------------------|
|----------------------------------------------|

|----------------------------------------------|
|------------------5-----7----5---4---5/7------|
|---4-----4----6------6------------------------|
|------6---------------------------------------|
|----------------------------------------------|
|----------------------------------------------|

|----------------------12-----12---16---12--11h12h14-----------------|
|-10---9---7---5-------15^(17)---------------------------------------|
|-11---9---8---6--------------------------------------11-13-11-------|
|--------------------------------------------------------------------|
|--------------------------------------------------------------------|
|--------------------------------------------------------------------|
 Bridge:

 A                    B
Ligaya noo'y nasa huli

 A                    B
Sambit na ng 'yong mga labi


Eto po yung para sa susunod:
 
 Chorus:
  III
 
  E   C#m   A      B    C#m                E          A            B
|-4----4-----------------9-9-9-9-9------7-7-7-7---------------------------|
|-5----5----5-----7--7---9--------------------------5-5-5-5----7-7-7-7-7--|
|-4----6----6-6---8-8----9--9-9-9-9-6----4-4-4-4---------------8-8-8-8-8--|
|-----------7--7--9--------------------------------7-7-7-7-----9-9-9-9-9--|
|-------------------------------------------------------------------------|
|-------------------------------------------------------------------------|

Parang Isang panaginip
Ang muling mapagbigyan
Tayo'y muling magkasama
Ang dati ay balewala

====Strum na po sa part na ito====

E              C#m 
Parang isang panaginip
       A            B
Ang muling mapagbigyan                     
C#m                 E                                 
Tayo'y muling magkasama                          
   A               B                      
Ang dati ay balewala                     
E                 C#m                   
Panatag na'ng kalooban ko                  
       A             B                    
At ika'y kapiling ko na                    
         A               B
Oh kay tagal kitang hinintay 
         A               B
Oh kay tagal kitang hinintay


       
============================Comment nalang po =======================

            
            
Suggest correction
Creating personal tab
Creating personal tab
You can edit any tab online and save it as your Personal.

You can edit, replace or remove any tab part or add personal notes – all changes will be seen only by you.

Personal tabs can be accessed anytime from any device, even offline.
Learn more »
comments
print report bad tab
guest
You may want to rate the tab now too:
select rating
Wanna post a correction for this tab? Suggest correction