Oops, an error
Loading. Please wait.

Makapiling Ka Tab

version 4
version 4

Whole song

5,172 views 3 this week
no commentswrite comment
1 2 3 4 5
please rate
add to favorites
launch autoscroll
font size
0
reset
how to read this tab
guitar tuner
Tab Pro tools
  • play this tab
  • loop segment
  • change instrument
  • show fretboard
  • metronome
Autoscroll
slow
fast
+/-
esc
set tempo
stop
Contributor
Difficulty
Tuning
novice
D# G# C# F# A# D#
Makapiling ka - Spongecola
Intro:
e|-0--0----0--0----8--8----x----x----x----0--0----3---3--x--x--|
B|-1--1----8--8----5--5----8----10---8----3--3----3---x--3--x--|
G|-0--0----0--0----x--x---(0)--(0)--(0)---0--0----0---x--x--x--|
D|-2--2----9--9----x--x----7----7----7----2--2----0---x--x--0--|
A|-3--3----10-10---x--x----8----8----8----3--3----2---x--x--x--|
E|-0--0----0--0----x--x---(0)--(0)--(0)---0--0----3---x--x--x--|

e|-0--0----0---x--x---0-|
B|-1--1----1---1--h2--x-|
G|-2--2----2---x--x---x-|
D|-2--2----3---x--x---x-|
A|-0--0----0---x--x---x-|
E|-0--0----0---x--x---x-|

Verse/Chorus*
  C-G-Am-FM7
   C           G          Am          FM7
e|-0-|	     e|-3-|	     e|-0-|	     e|-0-|	
B|-1-|	     B|-3-|	     B|-1-|	     B|-1-|
G|-0-|	     G|-0-|	     G|-2-|	     G|-2-|
D|-2-|	     D|-0-|	     D|-2-|	     D|-3-|
A|-3-|	     A|-2-|	     A|-0-|	     A|-0-|
E|-0-|	     E|-3-|	     E|-0-|	     E|-0-|

Pre-Chorus

e|-3-3-3-3-3-3----(0)--0--1--0--x--x--x--x--x-|
B|-3-3-3-3-3-3----(0)--x--x--x--3--1--0--x--x-|
G|-0-0-0-0-0-0----(0)--x--x--x--x--x--x--2--0-|
D|-0-0-0-0-0-0----(0)--x--x--x--x--x--x--x--x-|
A|-2-2-2-2-2-2----(0)--x--x--x--x--x--x--x--x-|
E|-3-3-3-3-3-3----(0)--x--x--x--x--x--x--x--x-|

Chorus

e|-0--0----0---0------x----x------x----x--| after this go to
B|-1--1----8---8-----13---13------8----8--| Chorus*
G|-0--0----0---0------9----9-----(0)--(0)-|
D|-2--2----9---9-----10---10------7----7--|
A|-3--3----10--10----(0)--(0)-----8----8--|
E|-0--0----0---0-----(0)--(0)----(0)--(0)-|

Bridge
G, FM7
comments
We did not receive enough feedback on this tab! Please rate:
print report bad tab
1 2 3 4 5
I want to post or [tab]
guest
You may want to rate the tab now too:
select rating
Please do not post tabs as comments. Select "correction" instead!