Oops, an error
Loading. Please wait.

Movie tab

version 1
version 1

Whole song

8,319 views 3 this week
9 commentsread comments
1 2 3 4 5
x 13
add to favorites
×
Save as Personal and add changes to this tab that will be seen only by you. Learn more ›
×
You can save this tab as Personal to edit and correct it or add notes. All changes will be seen only by you. Learn more »
launch autoscroll
font size
0
reset
how to read this tab
guitar tuner
edit
Autoscroll
slow
fast
+/-
esc
set tempo
stop
Title       : MOVIE
Artist      : Sponge cola

Ear tabber  : ROGEM S. BATTUNG
Address     : Palawan St. Sampaloc Manila
E-mail add 1: Guitarizta_rogem@yahoo.com
Contact no  : 09103887102

School      : EARIST B.S. APPLIED PHYSICS-1
Time Elapsed: 2:30-4:20
Date        : Dec 18 2006

this is MOVIE part of their new Album named Transit if you want the complete 
tabs of the Album just type in the "song name" inputbar "Transit"

"""makikita nyo naman name ko dun ehh qng sino gumawa"""

|==========================================================================|
|==========================================================================|
|==========================================================================|

ROGEM -> sa mga chord user na Gusto matuto na gumamit ng tab my instruction
         send kyo ng message sa Friendster " Guitarizta_rogem@yahoo.com or 
         Email nyo ako Guitarizta_gem@yahoo.com sabihin nyo kung kailangan 
         nyo ng Instruction sa pagbasa ng Tab forward ko sa inyo T.y.

ROGEM -> Gumawa ako ng dalwang tunning n2 ung naka E-Stadard & naka Eb   
         gumawa ako nun para sa hindi pa marunong mag tono ng Eb-tunning..
         pero mas reccomend ko pa din Eb kc dun talaga nila ginawa ung song
         
ROGEM -> SA BESTFRIEND KO NA SI ALBERT PAGAYUNAN WAKOKKOKOKOKO

ROGEM -> any suggestion and Comment txt 09103887102 send kyo ng Msj sa 
         Friendster Guitarizta_rogem@yahoo.com


|==================================================|
|==================================================|
|						   |
|              MOVIE E-STANDARD                    |
|						   |
|==================================================|
|==================================================|

Transcribed by: ROGEM S. BATTUNG
School        : EARIST B.S. APPLIED PHYSICS 
Time Elapsed  : 3:23 - 4:00
Date          : Dec 16 2006
Contact no    : 09103887102

CHORDS

E      = x68800
EM7/Eb = x58700
Cm     = x35543
G#     = 466544
Bb     = x13331
Gm     = 355333


VERSE I

Eb
The movie?s done once more
Eb
The mood sets in with lights
Eb                           DM7/D
Let?s wait for them to leave
                           Eb
I was never one for crowds


       Eb                       G#
e|-----0-0-0-0-0-0-0-0----------4-4-4-4-4-4-4-4-----------|
B|-----0-0-0-0-0-0-0-0----------4-4-4-4-4-4-4-4-----------|
G|-----8-8-8-8-8-8-8-8----------5-5-5-5-5-5-5-5-----------|
D|-----8-8-8-8-8-8-8-8----------6-6-6-6-6-6-6-6-----------|
A|-----6-6-6-6-6-6-6-6----------6-6-6-6-6-6-6-6-----------|
E|-----x-x-x-x-x-x-x-x----------4-4-4-4-4-4-4-4-----------|
	I look down on the floor
       Eb                                  G#
e|-----0-0-0-0-0-0-0-0-0-0-0-0-0-0---------4-4-4-4-4-4-4-4|
B|-----0-0-0-0-0-0-0-0-0-0-0-0-0-0---------4-4-4-4-4-4-4-4|
G|-----8-8-8-8-8-8-8-8-8-8-8-8-8-8---------5-5-5-5-5-5-5-5|
D|-----8-8-8-8-8-8-8-8-8-8-8-8-8-8---------6-6-6-6-6-6-6-6|
A|-----6-6-6-6-6-6-6-6-6-6-6-6-6-6---------6-6-6-6-6-6-6-6|
E|-----x-x-x-x-x-x-x-x-x-x-x-x-x-x---------4-4-4-4-4-4-4-4|
	Everything?s undone Yet we?ve been so much more
                           Eb
	han a full length feature

Interlude
     Eb        DM7/D      G# 	       Cm-Bb
e|---0-0-0-0-0-0-0-0-0-0--4-4-4-4-4---3-3--1-1-|
B|---0-0-0-0-0-0-0-0-0-0--4-4-4-4-4---4-4--3-3-|
G|---8-8-8-8-8-7-7-7-7-7--5-5-5-5-5---5-5--3-3-|
D|---8-8-8-8-8-8-8-8-8-8--6-6-6-6-6---5-5--3-3-|
A|---6-6-6-6-6-5-5-5-5-5--6-6-6-6-6---3-3--1-1-|
E|------------------------4-4-4-4-4---x-x--x-x-|


    Gm                 	          G#
e|--33333333----------------------44444444--------|
B|--33333333----------------------44444444--------|
G|--33333333----------------------55555555--------|
D|--55555555----------------------66666666--------|
A|--55555555----------------------66666666--------|
E|--33333333----------------------44444444--------|
  We long for escape    Let this memory take shape

    Eb                    DM7/D
e|--0000000---------------00000000----------------|
B|--0000000---------------00000000----------------|
G|--8888888---------------77777777----------------|
D|--8888888---------------88888888----------------|
A|--6666666---------------55555555----------------|
E|------------------------------------------------|
   For the heroes we often see

    Gm                 	          G#
e|--33333333----------------------44444444--------|
B|--33333333----------------------44444444--------|
G|--33333333----------------------55555555--------|
D|--55555555----------------------66666666--------|
A|--55555555----------------------66666666--------|
E|--33333333----------------------44444444--------|
I don?t know if it?s me    Or the movies we?ve seen

    Eb                    DM7/D
e|--0000000---------------00000000----------------|
B|--0000000---------------00000000----------------|
G|--8888888---------------77777777----------------|
D|--8888888---------------88888888----------------|
A|--6666666---------------55555555----------------|
E|------------------------------------------------|
I don?t remember As well as i should

CHORUS

GTR I
     Eb        DM7/D      G# 	       Cm-Bb
e|---0-0-0-0-0-0-0-0-0-0--4-4-4-4-4---3-3--1-1-|
B|---0-0-0-0-0-0-0-0-0-0--4-4-4-4-4---4-4--3-3-|
G|---8-8-8-8-8-7-7-7-7-7--5-5-5-5-5---5-5--3-3-|
D|---8-8-8-8-8-8-8-8-8-8--6-6-6-6-6---5-5--3-3-|
A|---6-6-6-6-6-5-5-5-5-5--6-6-6-6-6---3-3--1-1-|
E|------------------------4-4-4-4-4---x-x--x-x-|

GTR II
e|------------6------------6-------------6-------------6|
B|----6-8--9-------6-8-9---------6-8--9----------6-8--9-|
G|--8------------7-------------8---------------5--------|
D|------------------------------------------------------|
A|------------------------------------------------------|
E|------------------------------------------------------|
I stay so silent with your arms adjacent
And credits may soon roll away

INTERLUDE
GTR I
   Eb 	G# 	Eb 	DM7/D
e|-0----4-------0--------0-----------------------------|
B|-0----4-------0--------0-----------------------------|
G|-8----5-------8--------7-----------------------------|
D|-8----6-------8--------8-----------------------------|
A|-6----6-------6--------5-----------------------------|
E|------4----------------------------------------------|

VERSE II
    Gm                 	          G#
e|--33333333----------------------44444444--------|
B|--33333333----------------------44444444--------|
G|--33333333----------------------55555555--------|
D|--55555555----------------------66666666--------|
A|--55555555----------------------66666666--------|
E|--33333333----------------------44444444--------|
GTR II
e|-3---5--------------------------4--4------------|
B|--3---3--------------------------5--5-----------|
G|---3---3--------------------------6--6----------|
D|------------------------------------------------|
A|------------------------------------------------|
E|------------------------------------------------|
You have my jacket on

GTR I

    Eb                    DM7/D
e|--0000000---------------00000000----------------|
B|--0000000---------------00000000----------------|
G|--8888888---------------77777777----------------|
D|--8888888---------------88888888----------------|
A|--6666666---------------55555555----------------|
E|------------------------------------------------|
GTR II
e|-0------0---------------0------0----------------|
B|--0----0-----------------0----0-----------------|
G|------------------------------------------------|
D|-----9----------------------9-------------------|
A|----7----------------------6--------------------|
E|------------------------------------------------|
Comfort in my warmth ( I?m used to the cold )


    Gm                 	          G#
e|--33333333----------------------44444444--------|
B|--33333333----------------------44444444--------|
G|--33333333----------------------55555555--------|
D|--55555555----------------------66666666--------|
A|--55555555----------------------66666666--------|
E|--33333333----------------------44444444--------|
And i hope you?d agree How this story should be

    Eb                    DM7/D
e|--0000000---------------00000000----------------|
B|--0000000---------------00000000----------------|
G|--8888888---------------77777777----------------|
D|--8888888---------------88888888----------------|
A|--6666666---------------55555555----------------|
E|------------------------------------------------|
How i wish i could change the scenes

GTR I
    Gm                 	          G#
e|--33333333----------------------44444444--------|
B|--33333333----------------------44444444--------|
G|--33333333----------------------55555555--------|
D|--55555555----------------------66666666--------|
A|--55555555----------------------66666666--------|
E|--33333333----------------------44444444--------|
GTR II
e|------------6---------------------------6-------|
B|----6-8--9-----------------------6-8-9----------|
G|--8-----------------------------7---------------|
D|------------------------------------------------|
A|------------------------------------------------|
E|------------------------------------------------|
I?d write on the next page An early coming of age

GTR I
    Eb                    DM7/D
e|--0000000---------------00000000----------------|
B|--0000000---------------00000000----------------|
G|--8888888---------------77777777----------------|
D|--8888888---------------88888888----------------|
A|--6666666---------------55555555----------------|
E|------------------------------------------------|
GTR II
e|------6s8-6---------------------6---------------|
B|--6-8--------------------6-8--9-----------------|
G|-8---------------------7------------------------|
D|------------------------------------------------|
A|------------------------------------------------|
E|------------------------------------------------|
For me to tell you As well as i could

Chorus
GTR I
    E 		  EM7/Eb       A 		C#m-B
e|--0-0-0-0-0----0-0-0-0-0----0-0-0-0-0--------4-4--2-2-|
B|--0-0-0-0-0----0-0-0-0-0----2-2-2-2-2--------5-5--4-4-|
G|--9-9-9-9-9----8-8-8-8-8----2-2-2-2-2--------6-6--4-4-|2x
D|--9-9-9-9-9----9-9-9-9-9----2-2-2-2-2--------6-6--4-4-|
A|--7-7-7-7-7----6-6-6-6-6----0-0-0-0-0--------4-4--2-2-|
E|---------------------------------------------x-x--x-x-|
GTR II
e|------------7------------7-------------7-------------7|
B|----7-9-10-------7-9-10--------7-9-10----------7-9-10-|
G|--9------------8-------------9---------------6--------|
D|------------------------------------------------------|
A|------------------------------------------------------|
E|------------------------------------------------------|
I stay so silent with your arms adjacent
And credits may soon roll away


GTR I
     Eb        DM7/D      G# 	       Cm-Bb
e|---0-0-0-0-0-0-0-0-0-0--4-4-4-4-4---3-3--1-1-|
B|---0-0-0-0-0-0-0-0-0-0--4-4-4-4-4---4-4--3-3-|
G|---8-8-8-8-8-7-7-7-7-7--5-5-5-5-5---5-5--3-3-|2x
D|---8-8-8-8-8-8-8-8-8-8--6-6-6-6-6---5-5--3-3-|
A|---6-6-6-6-6-5-5-5-5-5--6-6-6-6-6---3-3--1-1-|
E|------------------------4-4-4-4-4---x-x--x-x-|
Could I stay so silent with your arms adjacent
The vagueness may soon come to light
Should

GTR I
     Eb        DM7/D      G# 	       Cm-Bb
e|---0-0-0-0-0-0-0-0-0-0--4-4-4-4-4---3-3--1-1-|
B|---0-0-0-0-0-0-0-0-0-0--4-4-4-4-4---4-4--3-3-|
G|---8-8-8-8-8-7-7-7-7-7--5-5-5-5-5---5-5--3-3-|
D|---8-8-8-8-8-8-8-8-8-8--6-6-6-6-6---5-5--3-3-|2x
A|---6-6-6-6-6-5-5-5-5-5--6-6-6-6-6---3-3--1-1-|
E|------------------------4-4-4-4-4---x-x--x-x-|
GTR II
ROGEM - > e2ng lead na 2 gawin nyo 2 continues hangang
          matapos ung song
e|-------6----------------------------------------------|
B|---6h8------------------------------------------------|
G|-8----------------------------------------------------|
D|------------------------------------------------------|
A|------------------------------------------------------|
E|------------------------------------------------------|
I stay so silent with your arms adjacent
As i play my part in our show

( DO SAME CHORDS )

Forever shall i be the ill-fated type
Forever must i be the one you confide to
Forever must i be the pages you need
For you to write all the secrets that
You hope i would keep
Forever must i drive you home late at night
After watching these films that seem to imitate life
Forever must i be the opinion you seek
Forever will i be the friend that you would keep

E EM7/Eb A Continue lang ung stram last chord G#

ROGEM -> any suggestion and Comment txt 09187229082 send kyo ng Msj sa 
         Friendster Guitarizta_rogem@yahoo.com




|==========================================================================|
|=============================EB-TUNNING===================================|
|==========================================================================|



this is MOVIE part of their new Album named Transit if you want the complete 
tabs of the Album just type in the "song name" inputbar "Transit"

"""makikita nyo naman name ko dun ehh qng sino gumawa"""


|==================================================|
|==================================================|
|						   |
|                     MOVIE                        |
|						   |
|==================================================|
|==================================================|

Transcribed by: ROGEM S. BATTUNG
School        : EARIST B.S. APPLIED PHYSICS 
Time Elapsed  : 3:23 - 4:00
Date          : Dec 16 2006
Contact no    : 09103887102

CHORDS

E      = x79900
EM7/Eb = x69800
C#m    = x46654
A      = x02220
B      = x24442
G#m    = 466444


VERSE I

E
The movie?s done once more
E
The mood sets in with lights
E                           EM7/Eb
Let?s wait for them to leave
                           E
I was never one for crowds


        E                        A
eb|-----0-0-0-0-0-0-0-0----------0-0-0-0-0-0-0-0-----------|
Bb|-----0-0-0-0-0-0-0-0----------2-2-2-2-2-2-2-2-----------|
Gb|-----9-9-9-9-9-9-9-9----------2-2-2-2-2-2-2-2-----------|
Db|-----9-9-9-9-9-9-9-9----------2-2-2-2-2-2-2-2-----------|
Ab|-----7-7-7-7-7-7-7-7----------0-0-0-0-0-0-0-0-----------|
Eb|-----x-x-x-x-x-x-x-x----------x-x-x-x-x-x-x-x-----------|
	I look down on the floor
        E                                            A
eb|-----0-0-0-0-0-0-0-0-0-0-0-0-0-0---------0-0-0-0-0-0-0-0|
Bb|-----0-0-0-0-0-0-0-0-0-0-0-0-0-0---------2-2-2-2-2-2-2-2|
Gb|-----9-9-9-9-9-9-9-9-9-9-9-9-9-9---------2-2-2-2-2-2-2-2|
Db|-----9-9-9-9-9-9-9-9-9-9-9-9-9-9---------2-2-2-2-2-2-2-2|
Ab|-----7-7-7-7-7-7-7-7-7-7-7-7-7-7---------0-0-0-0-0-0-0-0|
Eb|-----x-x-x-x-x-x-x-x-x-x-x-x-x-x---------x-x-x-x-x-x-x-x|
	Everything?s undone Yet we?ve been so much more
                           E
	han a full length feature

Interlude
    E 		EM7/Eb     A 		C#m-B
eb|---0-0-0-0-0-0-0-0-0-0--0-0-0-0-0---4-4--2-2-|
Bb|---0-0-0-0-0-0-0-0-0-0--2-2-2-2-2---5-5--4-4-|
Gb|---9-9-9-9-9-8-8-8-8-8--2-2-2-2-2---6-6--4-4-|
Db|---9-9-9-9-9-9-9-9-9-9--2-2-2-2-2---6-6--4-4-|
Ab|---7-7-7-7-7-6-6-6-6-6--0-0-0-0-0---4-4--2-2-|
Eb|------------------------------------x-x--x-x-|


    G#m                 	   A
eb|--44444444----------------------00000000--------|
Bb|--44444444----------------------22222222--------|
Gb|--44444444----------------------22222222--------|
Db|--66666666----------------------22222222--------|
Ab|--66666666----------------------0000000---------|
Eb|--44444444--------------------------------------|
  We long for escape    Let this memory take shape

    E                    EM7/Eb
eb|--0000000---------------00000000----------------|
Bb|--0000000---------------00000000----------------|
Gb|--9999999---------------88888888----------------|
Db|--9999999---------------99999999----------------|
Ab|--7777777---------------66666666----------------|
Eb|------------------------------------------------|
   For the heroes we often see

    G#m                 	   A
eb|--44444444----------------------00000000--------|
Bb|--44444444----------------------22222222--------|
Gb|--44444444----------------------22222222--------|
Db|--66666666----------------------22222222--------|
Ab|--66666666----------------------00000000--------|
Eb|--44444444--------------------------------------|
I don?t know if it?s me    Or the movies we?ve seen

    E                    EM7/Eb
eb|--0000000---------------00000000----------------|
Bb|--0000000---------------00000000----------------|
Gb|--9999999---------------88888888----------------|
Db|--9999999---------------99999999----------------|
Ab|--7777777---------------66666666----------------|
Eb|------------------------------------------------|
I don?t remember As well as i should

CHORUS

GTR I
    E 		  EM7/Eb       A 		C#m-B
eb|--0-0-0-0-0----0-0-0-0-0----0-0-0-0-0--------4-4--2-2-|
Bb|--0-0-0-0-0----0-0-0-0-0----2-2-2-2-2--------5-5--4-4-|
Gb|--9-9-9-9-9----8-8-8-8-8----2-2-2-2-2--------6-6--4-4-|2x
Db|--9-9-9-9-9----9-9-9-9-9----2-2-2-2-2--------6-6--4-4-|
Ab|--7-7-7-7-7----6-6-6-6-6----0-0-0-0-0--------4-4--2-2-|
Eb|---------------------------------------------x-x--x-x-|
GTR II
eb|------------7------------7-------------7-------------7|
Bb|----7-9-10-------7-9-10--------7-9-10----------7-9-10-|
Gb|--9------------8-------------9---------------6--------|
Db|------------------------------------------------------|
Ab|------------------------------------------------------|
Eb|------------------------------------------------------|
I stay so silent with your arms adjacent
And credits may soon roll away

INTERLUDE
GTR I
   E 	A 	E 	EM7/Eb
eb|-0----0-------0--------0-----------------------------|
Bb|-0----2-------0--------0-----------------------------|
Gb|-9----2-------9--------8-----------------------------|
Db|-9----2-------9--------9-----------------------------|
Ab|-7----0-------7--------6-----------------------------|
Eb|-----------------------------------------------------|

VERSE II
    G#m                 	   A
eb|--44444444----------------------00000000--------|
Bb|--44444444----------------------22222222--------|
Gb|--44444444----------------------22222222--------|
Db|--66666666----------------------22222222--------|
Ab|--66666666----------------------0000000---------|
Eb|--44444444--------------------------------------|
GTR II
eb|-4---5--------------------------5--5------------|
Bb|--4---4--------------------------6--6-----------|
Gb|---4---4--------------------------7--7----------|
Db|------------------------------------------------|
Ab|------------------------------------------------|
Eb|------------------------------------------------|
You have my jacket on

GTR I
    E                    EM7/Eb
eb|--0000000---------------00000000----------------|
Bb|--0000000---------------00000000----------------|
Gb|--9999999---------------88888888----------------|
Db|--9999999---------------99999999----------------|
Ab|--7777777---------------66666666----------------|
Eb|------------------------------------------------|
GTR II
eb|-0------0---------------0------0----------------|
Bb|--0----0-----------------0----0-----------------|
Gb|------------------------------------------------|
Db|-----9----------------------9-------------------|
Ab|----7----------------------6--------------------|
Eb|------------------------------------------------|
Comfort in my warmth ( I?m used to the cold )


    G#m                 	   A
eb|--44444444----------------------00000000--------|
Bb|--44444444----------------------22222222--------|
Gb|--44444444----------------------22222222--------|
Db|--66666666----------------------22222222--------|
Ab|--66666666----------------------0000000---------|
Eb|--44444444--------------------------------------|
And i hope you?d agree How this story should be

    E                    EM7/Eb
eb|--0000000---------------00000000----------------|
Bb|--0000000---------------00000000----------------|
Gb|--9999999---------------88888888----------------|
Db|--9999999---------------99999999----------------|
Ab|--7777777---------------66666666----------------|
Eb|------------------------------------------------|
How i wish i could change the scenes

GTR I
    G#m                 	   A
eb|--44444444----------------------00000000--------|
Bb|--44444444----------------------22222222--------|
Gb|--44444444----------------------22222222--------|
Db|--66666666----------------------22222222--------|
Ab|--66666666----------------------0000000---------|
Eb|--44444444--------------------------------------|
GTR II
eb|------------7---------------------------7-------|
Bb|----7-9-10-----------------------7-9-10---------|
Gb|--9-----------------------------8---------------|
Db|------------------------------------------------|
Ab|------------------------------------------------|
Eb|------------------------------------------------|
I?d write on the next page An early coming of age

GTR I
    E                    EM7/Eb
eb|--0000000---------------00000000----------------|
Bb|--0000000---------------00000000----------------|
Gb|--9999999---------------88888888----------------|
Db|--9999999---------------99999999----------------|
Ab|--7777777---------------66666666----------------|
Eb|------------------------------------------------|
GTR II
eb|------7s9-7---------------------7---------------|
Bb|--7-9--------------------7-9-10-----------------|
Gb|-9---------------------8------------------------|
Db|------------------------------------------------|
Ab|------------------------------------------------|
Eb|------------------------------------------------|
For me to tell you As well as i could

Chorus
GTR I
    E 		  EM7/Eb       A 		C#m-B
eb|--0-0-0-0-0----0-0-0-0-0----0-0-0-0-0--------4-4--2-2-|
Bb|--0-0-0-0-0----0-0-0-0-0----2-2-2-2-2--------5-5--4-4-|
Gb|--9-9-9-9-9----8-8-8-8-8----2-2-2-2-2--------6-6--4-4-|2x
Db|--9-9-9-9-9----9-9-9-9-9----2-2-2-2-2--------6-6--4-4-|
Ab|--7-7-7-7-7----6-6-6-6-6----0-0-0-0-0--------4-4--2-2-|
Eb|---------------------------------------------x-x--x-x-|
GTR II
eb|------------7------------7-------------7-------------7|
Bb|----7-9-10-------7-9-10--------7-9-10----------7-9-10-|
Gb|--9------------8-------------9---------------6--------|
Db|------------------------------------------------------|
Ab|------------------------------------------------------|
Eb|------------------------------------------------------|
I stay so silent with your arms adjacent
And credits may soon roll away


    E 		  EM7/Eb       A 		C#m-B
eb|--0-0-0-0-0----0-0-0-0-0----0-0-0-0-0--------4-4--2-2-|
Bb|--0-0-0-0-0----0-0-0-0-0----2-2-2-2-2--------5-5--4-4-|
Gb|--9-9-9-9-9----8-8-8-8-8----2-2-2-2-2--------6-6--4-4-|2x
Db|--9-9-9-9-9----9-9-9-9-9----2-2-2-2-2--------6-6--4-4-|
Ab|--7-7-7-7-7----6-6-6-6-6----0-0-0-0-0--------4-4--2-2-|
Eb|---------------------------------------------x-x--x-x-|
Could I stay so silent with your arms adjacent
The vagueness may soon come to light
Should

    E 		  EM7/Eb       A 		C#m-B
eb|--0-0-0-0-0----0-0-0-0-0----0-0-0-0-0--------4-4--2-2-|
Bb|--0-0-0-0-0----0-0-0-0-0----2-2-2-2-2--------5-5--4-4-|
Gb|--9-9-9-9-9----8-8-8-8-8----2-2-2-2-2--------6-6--4-4-|2x
Db|--9-9-9-9-9----9-9-9-9-9----2-2-2-2-2--------6-6--4-4-|
Ab|--7-7-7-7-7----6-6-6-6-6----0-0-0-0-0--------4-4--2-2-|
Eb|---------------------------------------------x-x--x-x-|
GTR II
ROGEM - > e2ng lead na 2 gawin nyo 2 continues hangang
          matapos ung song
eb|-------7----------------------------------------------|
Bb|---7h9------------------------------------------------|
Gb|-9----------------------------------------------------|
Db|------------------------------------------------------|
Ab|------------------------------------------------------|
Eb|------------------------------------------------------|
I stay so silent with your arms adjacent
As i play my part in our show

( DO SAME CHORDS )

Forever shall i be the ill-fated type
Forever must i be the one you confide to
Forever must i be the pages you need
For you to write all the secrets that
You hope i would keep
Forever must i drive you home late at night
After watching these films that seem to imitate life
Forever must i be the opinion you seek
Forever will i be the friend that you would keep

E EM7/Eb A Continue lang ung stram last chord A

ROGEM -> any suggestion and Comment txt 09103887102 send kyo ng Msj sa 
         Friendster Guitarizta_rogem@yahoo.com
|==========================================================================|
|==========================================================================|
|==========================================================================|


this is MOVIE part of their new Album named Transit if you want the complete 
tabs of the Album just type in the "song name" inputbar "Transit"

"""makikita nyo naman name ko dun ehh qng sino gumawa"""

            
            
Suggest correction
Creating personal tab
Creating personal tab
You can edit any tab online and save it as your Personal.

You can edit, replace or remove any tab part or add personal notes – all changes will be seen only by you.

Personal tabs can be accessed anytime from any device, even offline.
Learn more »
comments
print report bad tab
9 comments total. Showing first comments.
0 reply
brent_nadurata 150 Apr 15, 2007 03:48 PM

astig rogem!

0 reply
pestkid 10 Apr 24, 2007 02:57 AM

Ayus ah... pde...... kuya rogem panu po ba mag palit ng tuning galing standard papuntang Eb tuning?... Paturo naman...

0 reply
carlos_daniel 10 May 15, 2007 04:56 AM

babaan mo ng half step ung gtara mo.. bli dpat ung 5th string k2nog ng 6th string sa 6th fret, then itono mo na tulad ng pagtotono mo s standard o pkinggan mo ung plucking ng tuliro tpuz itono mo sa gtra mo

guest
You may want to rate the tab now too:
select rating
Wanna post a correction for this tab? Suggest correction