Oops, an error
Loading. Please wait.

Nakapagtataka tab

version 3
version 3

Whole song

6,600 views 1 this week
no commentswrite comment
1 2 3 4 5
1 last vote to show rating
add to favorites
×
Save as Personal and add changes to this tab that will be seen only by you. Learn more ›
×
You can save this tab as Personal to edit and correct it or add notes. All changes will be seen only by you. Learn more »
launch autoscroll
font size
0
reset
how to read this tab
guitar tuner
edit
Autoscroll
slow
fast
+/-
esc
set tempo
stop
Author
Difficulty
Tabbed by: Ralph Cristofer
Email: fast_break20@yahoo.com.ph....add nio ako sa friendster....


NAKAPAGTATAKA_SPONGECOLA


      E		      A		   E		G#m	     C#m       E
e|-------------|-----------|------------|-----4-----|------4-----|-----------|
B|-------------|-----2-----|------------|-----4-----|------5-----|-----------|
G|----1--------|-----2-----|-----1------|-----4-----|------6-----|-----1-----|
D|----2--------|-----2-----|-----2------|-----6-----|------6-----|-----2-----|
A|----2--------|-----------|-----2------|-----6-----|------4-----|-----2-----|
E|-------------|-----------|------------|-----4-----|------------|-----------|
        Walang   tigil ang     gulo sa      aking     pag-iisip

		A	     B		    G#m		    E
e|------------------|-------2------|-------4-------|------------|
B|-------------2----|-------4------|-------4-------|------------|
G|-------------2----|-------4------|-------4-------|------1-----|
D|-------------2----|-------4------|-------6-------|------2-----|
A|------------------|-------2------|-------6-------|------2-----|
E|------------------|--------------|-------4-------|------------|
    Mula ng tayo’y      nagpasyang     maghiwalay

	   A	             B		     G#m
e|------------------|-------2-------|-------4-------|
B|---------2--------|-------4-------|-------4-------|
G|---------2--------|-------4-------|-------4-------|
D|---------2--------|-------4-------|-------6-------|
A|------------------|-------2-------|-------6-------|
E|------------------|-------2-------|-------4-------|
   Nagpaalam pagkat     hindi tayo     bagay

	C#m		    F#m		    B
e|-------4---------|-------2-------|------2------|
B|-------5---------|-------2-------|------3------|
G|-------6---------|-------2-------|------3------|
D|-------6---------|-------4-------|------3------|
A|-------4---------|-------4-------|------2------|
E|-----------------|-------2-------|-------------|
             Nakapagtataka

       E              A	          E            G#m	    C#m	         E
e|--------------|-----------|------------|-----4------|------4-----|-----------|
B|--------------|-----2-----|------------|-----4------|------5-----|-----------|
G|-----1--------|-----2-----|-----1------|-----4------|------6-----|-----1-----|
D|-----2--------|-----2-----|-----2------|-----6------|------6-----|-----2-----|
A|-----2--------|-----------|-----2------|-----6------|------4-----|-----2-----|
E|--------------|-----------|------------|-----4------|------------|-----------|
     Kung           bakit     ganito        ang aking     kapalaran

	       A	    B		      G#m	     E
e|------------------|-------2------|----------4-------|------------|
B|-------------2----|-------4------|----------4-------|------------|
G|-------------2----|-------4------|----------4-------|------1-----|
D|-------------2----|-------4------|----------6-------|------2-----|
A|------------------|-------2------|----------6-------|------2-----|
E|------------------|--------------|----------4-------|------------|
   Di ba ilang ulit      ka ng    nagpaalam

	       A	    B		      G#m
e|------------------|-------2------|----------4-------|
B|-------------2----|-------4------|----------4-------|
G|-------------2----|-------4------|----------4-------|
D|-------------2----|-------4------|----------6-------|
A|------------------|-------2------|----------6-------|
E|------------------|--------------|----------4-------|
    At bawat paalam    ay puno ng    iyakan

	C#m		   F#m		          B
e|-------4---------|-------2-------|--------------2------|
B|-------5---------|-------2-------|--------------3------|
G|-------6---------|-------2-------|--------------3------|
D|-------6---------|-------4-------|--------------3------|
A|-------4---------|-------4-------|--------------2------|
E|-----------------|-------2-------|---------------------|
             Nakapagtataka     Nakapagtataka

        G		   Bm		       Em		    D
e|------3--------|---------2----------|---------------------|-------2------|
B|------3--------|---------3----------|---------------------|-------3------|
G|------4--------|---------4----------|---------------------|-------2------|
D|------5--------|---------4----------|--------2------------|--------------|
A|------5--------|---------2----------|--------2------------|--------------|
E|------3--------|--------------------|---------------------|--------------|
   Hindi ka ba napapagod O di kaya    nagsasawa sa ating           mga

	C		      Am	   D
e|------0-------------|--------------|------2------|
B|------1-------------|-------1------|------3------|
G|------0-------------|-------2------|------2------|
D|------2-------------|-------2------|-------------|
A|------3-------------|--------------|-------------|
E|------3-------------|--------------|-------------|
     Tampuhan walang      hanggang  katapusan

        G		      Bm
e|------3-----------|---------2--------------------|
B|------3-----------|---------3--------------------|
G|------4-----------|---------4--------------------|
D|------5-----------|---------4--------------------|
A|------5-----------|---------2--------------------|
E|------3-----------|------------------------------|
   Napahid na’ng mga      luha damdamin at puso’y


	Em		    D	     C	           Am		 D
e|------------------|-------2-----|--0--------|----------|-------3-------|
B|------------------|-------3-----|--1--------|-----1----|-------3-------|
G|------------------|-------2-----|--0--------|-----2----|-------2-------|
D|------2-----------|-------------|--2--------|-----2----|---------------|
A|------2-----------|-------------|--3--------|----------|---------------|
E|------------------|-------------|--3--------|----------|---------------|
     tigang wala ng          maibubuga wala na    akong       maramdaman

      E		      A		   E	     G#m	   C#m        E
e|-------------|-----------|------------|-----4-----|------4-----|-----------|
B|-------------|-----2-----|------------|-----4-----|------5-----|-----------|
G|----1--------|-----2-----|-----1------|-----4-----|------6-----|-----1-----|
D|----2--------|-----2-----|-----2------|-----6-----|------6-----|-----2-----|
A|----2--------|-----------|-----2------|-----6-----|------4-----|-----2-----|
E|-------------|-----------|------------|-----4-----|------------|-----------|
     Walang      tigil ang     ulan at     nasaan ka     araw


		A	         B		G#m	       E
e|-----------------------|-------2------|-------4-------|------------|
B|-------------2---------|-------4------|-------4-------|------------|
G|-------------2---------|-------4------|-------4-------|------1-----|
D|-------------2---------|-------4------|-------6-------|------2-----|
A|-----------------------|-------2------|-------6-------|------2-----|
E|-----------------------|--------------|-------4-------|------------|
  Napa’no na’ng pag-ibig     sa isa’t          isa

	       A	         B		G#m
e|-----------------------|-------2------|-------4-------|
B|-------------2---------|-------4------|-------4-------|
G|-------------2---------|-------4------|-------4-------|
D|-------------2---------|-------4------|-------6-------|
A|-----------------------|-------2------|-------6-------|
E|-----------------------|--------------|-------4-------|
        Wala na bang  nananatiling         pag-asa

	C#m		   F#m		          B
e|-------4---------|-------2-------|--------------2------|
B|-------5---------|-------2-------|--------------3------|
G|-------6---------|-------2-------|--------------3------|
D|-------6---------|-------4-------|--------------3------|
A|-------4---------|-------4-------|--------------2------|
E|-----------------|-------2-------|---------------------|
             Nakapagtataka, saan na       napunta?

        G		   Bm		       Em		    D
e|------3--------|---------2----------|---------------------|-------2------|
B|------3--------|---------3----------|---------------------|-------3------|
G|------4--------|---------4----------|---------------------|-------2------|
D|------5--------|---------4----------|--------2------------|--------------|
A|------5--------|---------2----------|--------2------------|--------------|
E|------3--------|--------------------|---------------------|--------------|
   Hindi ka ba napapagod O di kaya    nagsasawa sa ating           mga

	C		      Am	    D
e|------0-------------|--------------|------2------|
B|------1-------------|-------1------|------3------|
G|------0-------------|-------2------|------2------|
D|------2-------------|-------2------|-------------|
A|------3-------------|--------------|-------------|
E|------3-------------|--------------|-------------|
     Tampuhan walang      hanggang  katapusan

        G		      Bm
e|------3-----------|---------2--------------------|
B|------3-----------|---------3--------------------|
G|------4-----------|---------4--------------------|
D|------5-----------|---------4--------------------|
A|------5-----------|---------2--------------------|
E|------3-----------|------------------------------|
   Napahid na’ng mga      luha damdamin at puso’y


	Em		    D	     C	           Am		 D
e|------------------|-------2-----|--0--------|----------|-------3-------|
B|------------------|-------3-----|--1--------|-----1----|-------3-------|
G|------------------|-------2-----|--0--------|-----2----|-------2-------|
D|------2-----------|-------------|--2--------|-----2----|---------------|
A|------2-----------|-------------|--3--------|----------|---------------|
E|------------------|-------------|--3--------|----------|---------------|
     tigang wala ng          maibubuga wala na    akong       maramdaman

ETO NA ANG ADLIB. . .2min:43sec. . .

e|-------------------------------8/10-10\8-7h8-5-----------------------|
B|-------8/10-10-10/12-12\10-10------------------8-8/10-7-8-7----------|
G|--9-11--------------------------------------------------------7-9----|
D|------------------------------------------------------------9--------|
A|---------------------------------------------------------------------|
E|---------------------------------------------------------------------|

e|------------------------------15h17-17-15-17/19-19-19-19-19-17-15-19--|
B|--7-8-10-12-12/15-15-15-15h17-----------------------------------------|
G|----------------------------------------------------------------------|
D|----------------------------------------------------------------------|
A|----------------------------------------------------------------------|
E|----------------------------------------------------------------------|

        G		      Bm
e|------3-----------|---------2--------------------|
B|------3-----------|---------3--------------------|
G|------4-----------|---------4--------------------|
D|------5-----------|---------4--------------------|
A|------5-----------|---------2--------------------|
E|------3-----------|------------------------------|
   Napahid na’ng mga      luha damdamin at puso’y


	Em		    D	     C	           Am		 D
e|------------------|-------2-----|--0--------|----------|-------3-------|
B|------------------|-------3-----|--1--------|-----1----|-------3-------|
G|------------------|-------2-----|--0--------|-----2----|-------2-------|
D|------2-----------|-------------|--2--------|-----2----|---------------|
A|------2-----------|-------------|--3--------|----------|---------------|
E|------------------|-------------|--3--------|----------|---------------|
     tigang wala ng          maibubuga wala na    akong       maramdaman

3min:20sec. . .

e|---17/19-19-19-19-19--17-15-14—15----|
B|-------------------------------------|
G|-------------------------------------|
D|-------------------------------------|
A|-------------------------------------|
E|-------------------------------------|

       C              D               G
e|-----3-------|------2-------|-------3----------|
B|-----5-------|------3-------|-------3----------|
G|-----5-------|------2-------|-------4----------|
D|-----5-------|--------------|-------5----------|
A|-----3-------|--------------|-------5----------|
E|-------------|--------------|-------3----------|
          Kung    tunay tayong   nagmamahalan

       C              D               G                 C
e|-----3-------|------2-------|-------3----------|------3-----|
B|-----5-------|------3-------|-------3----------|------5-----|
G|-----5-------|------2-------|-------4----------|------5-----|
D|-----5-------|--------------|-------5----------|------5-----|
A|-----3-------|--------------|-------5----------|------3-----|
E|-------------|--------------|-------3----------|------------|
           Ba’t     di tayo   magkasunduan           woooh...

3min:38sec
e|-------------------5---5/7-8/10----|
B|--5-8-5-8-7------5---5-------------|
G|-----------------------------------|
D|-----------------------------------|
A|-----------------------------------|
E|-----------------------------------|

comment naman po kau ha....kung sakaling hindi nio matiming ito eh sabihin nio lang sa 
sa account ko sa friendster....ibibigay ko sa inyo video ko....cge tnx 4 viewing my tab....

| /  slide up
| \  slide down
| h  hammer-on
| p  pull-off
| ~  vibrato
| +  harmonic
| x  Mute note

            
            
Suggest correction
Creating personal tab
Creating personal tab
You can edit any tab online and save it as your Personal.

You can edit, replace or remove any tab part or add personal notes – all changes will be seen only by you.

Personal tabs can be accessed anytime from any device, even offline.
Learn more »
Give kudos to tab author, rate the tab!
1 2 3 4 5
comments
print report bad tab
guest
You may want to rate the tab now too:
select rating
Wanna post a correction for this tab? Suggest correction