Oops, an error
Loading. Please wait.

On The Floor tab

version 2
version 2

Whole song

843 views 1 this week
2 commentsread comments
1 2 3 4 5
x 8
add to favorites
×
Save as Personal and add changes to this tab that will be seen only by you. Learn more ›
×
You can save this tab as Personal to edit and correct it or add notes. All changes will be seen only by you. Learn more »
launch autoscroll
font size
0
reset
how to read this tab
guitar tuner
edit
Autoscroll
slow
fast
+/-
esc
set tempo
stop
Author
 Title: On the Floor
 Artist: Sponge cola
 Album: Palabas
 Track #: 5
 Transcribed by: Allan John G. Amisola
 E-mail add: kogure_18spider@yahoo.com


 This is my 2nd tab and I proudly dedicate this...
 Kay Maria Theresa Montero, a very special friend of mine...
 Sa mga ka-batch ko sa Redemptorist Seminary '03, 
 sina Errol, Jr, Ken, Japuk, DJ, Mike B., Drew, 
 RJ'capo, Choi, Meloy, Jun, Goy, Goks, Bhadz, 
 Arlan, Mike C., Mike D., Son, Kitz, Jess, Zarx, 
 Ranel, Kevz, George, Buboy, at Mar... 
 At sa inyo mga rakista!!!ROCK RULZZ!!!


 Standard Tuning: eBGDAE

 [Intro]

 e-----------------------
 B—-5*-----4*----4*------
 G----4-4----4-4---4----- 11x
 D----------------------- (* -let it ring)
 A-----------------------
 E-----------------------

    Dapat ma-emphasize yung tunog ng string #2 (string B)

 [Verse]
     Karamihan kasi sa kantang ito ay keyboards ang nagamit.
     Kung gusto mong tugtugin yung verse ganito yun...

 e------------------------------------------------------|
 B—-----------------------------------------------------|
 G---9----------9----------9----------1-----------------|
 D---9----------9----------9----------2-----------------| (2x)
 A---7----------7----------7----------2-----------------|
 E--------------9---------------------0-----------------|
            The door...alone........I open the door again
           I've seen..before.........myself fall face first on the...

 [Refrain]
 
     Guitar 1:
 e-----------------------------------------------------|
 B—----------------------------------------------------|
 G-----------------------------------------------------|
 D---4-------7-------2-------2-------4--------7--------|
 A---4-------7-------2-------2-------4--------7--------|
 E---2-------5-------0-------2-------2--------5--------|
  ...floor...burn....flooooooor... I turn.....burn 
 
     Guitar 2: bago 'to mag-refrain
 e----------7----------------|
 B—--9--7------10----7-------|
 G--------9-------9----9-----|
 D---------------------------|
 A---------------------------|
 E---------------------------| 

 [Chorus]
 
 e-------------------------------------------------------|
 B—------------------------------------------------------|
 G-------------------------------------------------------|
 D-----99999999--66666666--6---------77777777------------|
 A-----77777777--44444444--6-hold----77777777------------|
 E-------------------------4---------55555555------------|
       So you....lying on..floor.....singking,

 e-------------------------------------------------------|
 B—------------------------------------------------------|
 G-------------------------------------------------------|
 D-----99999999--66666666--66666666--77777777------------|
 A-----77777777--44444444--66666666--77777777------------|
 E-------------------------44444444--55555555------------|
       Unable    to give anymore.....singking.


 [Verse ulit]

 e------------------------------------------------------|
 B—-----------------------------------------------------|
 G---9----------9----------9----------1-----------------|
 D---9----------9----------9----------2-----------------| (2x)
 A---7----------7----------7----------2-----------------|
 E--------------9---------------------0-----------------|
             Forever....my days.......look for an escape
            I'm drowning...stay...one look away and so I...

 [Refrain]
 
     Guitar 1:
 e-----------------------------------------------------|
 B—----------------------------------------------------|
 G-----------------------------------------------------|
 D---4-------7-------2-------2-------4--------7--------|
 A---4-------7-------2-------2-------4--------7--------|
 E---2-------5-------0-------2-------2--------5--------|
  ...turn....burn....flooooooor... I turn.....burn

     Guitar 2: bago mag-refrain
 e--------///12~---------------------------------------|
 B—----------------------------------------------------|
 G-----------------------------------------------------|

 [Chorus]

 e-------------------------------------------------------|
 B—------------------------------------------------------|
 G-------------------------------------------------------|
 D-----99999999--66666666--66666666--77777777------------| 2x
 A-----77777777--44444444--66666666--77777777------------|
 E-------------------------44444444--55555555------------|
       So you....lying on..floor.....singking,
       Unable    to give anymore.....singking.  

 [Bridge] 

 e-----------------------------------------------------|
 B—----------------------------------------------------|
 G-----------6-------1---------------------------------|
 D---4-------7-------2-------2-------------------------|
 A---4-------7-------2-------2-------------------------|
 E---2-------5-------0-------2-------------------------|
     the s...weak....we.....enough

 [Chorus 2]

 e-------------------------------------------------------|
 B—------------------------------------------------------|
 G-------------------------------------------------------|
 D-----99999999--66666666--77777777--99999999------------|
 A-----77777777--44444444--55555555--66666666------------|
 E-------------------------------------------------------|
      And I......function..lying.....lying here

 [Solo]
      Just listen to this part for the tiempo at paglipat,
          kailangan tuloy-tuloy ang pagkalabit sa strings...

 e----------------------------------------------------------------------------------------------------------|
 B—--/--121212121212121212121212121212121212--999999999999--12121212----------------------------------------|
 G--------------------------------------------------------------------8888888888888888--999999--888888-9----| 2x
 D----------------------------------------------------------------------------------------------------------|
 A----------------------------------------------------------------------------------------------------------|
 E----------------------------------------------------------------------------------------------------------|

 [Refrain]

     Guitar 1:
 e-----------------------------------------------------|
 B—----------------------------------------------------|
 G-----------------------------------------------------|
 D---4-------7-------2-------2-------4--------7--------|
 A---4-------7-------2-------2-------4--------7--------|
 E---2-------5-------0-------2-------2--------5--------|
  ...turn....burn....flooooooor... I turn.....burn 

     Guitar 2: bago 'to mag-refrain
 e----------7------------------|
 B—--9--7--------10--9--7------|
 G--------9----------------9---|
 D-----------------------------|
 A-----------------------------|
 E-----------------------------|

 [Last Chorus]

 e-------------------------------------------------------|
 B—------------------------------------------------------|
 G-------------------------------------------------------|
 D-----99999999--66666666--66666666--77777777------------| 2x
 A-----77777777--44444444--66666666--77777777------------|
 E-------------------------44444444--55555555------------|
       So you....lying on..floor.....singking,
       Unable    to give anymore.....singking

 e-------------------------------------------------------|
 B—------------------------------------------------------|
 G-------------------------------------------------------|
 D-----99999999--66666666--66666666--77777777------------|
 A-----77777777--44444444--66666666--77777777------------|
 E-------------------------44444444--55555555------------|
       So you....lying on..floor.....singking,
      
 e-------------------------------------------------------|
 B—------------------------------------------------------|
 G-------------------------------------------------------|
 D-----99999999--66666666--66666666--77777777--9---------|
 A-----77777777--44444444--66666666--77777777--7---------|
 E-------------------------44444444--55555555------------|
       Unable    to give anymore.....singking.

[Outro]

    Do chord patterns (plucking):
     E*   E/C#  Ab   B    F#m
 e---7----7-----4----5----2------||
 B—--7----7-----4----5----2------||
 G---9----9-----4----5----2------||
 D---9----9-----6----7----4------||
 A---7----7-----6----7----4------||
 E--------9-----4----5----2------||

 E*
  Can you hear me talking?
 E/C#
  Can you see me there?
 Ab               B
  I'm not getting anything from you
 E*
  Can you hear my whispers?
 E/C#
  Can you see me there?
 Ab
 'Coz I'd be lost
                       F#m (stroke each string downward from E to e of F#m)
  I'd be lost without you


***On the Floor Lyrics; (by letssingit.com)***

The doorknob smiles at me alone
But I will open the door again
I've seen this happening before
I've seen myself fall face first on the floor

Crash and burn
On the floor
As I turn crash and burn

So used to lying on the floor
And now I'm sinking
Unable to give in anymore
And now I'm sinking

Forever envelopes my days
Gasping for air as I look for an escape
I'm drowning in a letter made to stay
I took one look away

And so I turn
Crash and burn on the floor
So I turn
Crash and burn

So used to lying on the floor
And now I'm sinking
Unable to give in anymore
And now I'm sinking 

The Strong's too weak to hurt the weak
Must be strong enough to leave
And I can't function properly
I'm lying here
Lying here

And so I turn
Crash and burn
On the floor
So I turn
Crash and burn

Can you hear me talking?
Can you see me there?
I'm not getting anything from you
Can you hear my whispers?
Can you see me there?
'Coz I'd be lost
I'd be lost without you


 *********************************************
 Just e-mail me if you want to rectify it...
 Add n'yo 'ko sa friendster at hi5
 *********************************************
Suggest correction
Creating personal tab
Creating personal tab
You can edit any tab online and save it as your Personal.

You can edit, replace or remove any tab part or add personal notes – all changes will be seen only by you.

Personal tabs can be accessed anytime from any device, even offline.
Learn more »
comments
print report bad tab
2 comments total.
0 reply
f1f2 774 Apr 05, 2006 07:44 PM

Nice try.
dapat e ibaba mo ng isang fret

0 reply
kogsy 539 Oct 30, 2007 07:17 AM

aw... uu nga, nkalimutan ko...

guest
You may want to rate the tab now too:
select rating
Wanna post a correction for this tab? Suggest correction