Oops, an error
Loading. Please wait.

Pare Ko solo tab

version 1
version 1

Solo

6,381 views 1 this week
1 commentread comment
1 2 3 4 5
1 last vote to show rating
add to favorites
×
Save as Personal and add changes to this tab that will be seen only by you. Learn more ›
×
You can save this tab as Personal to edit and correct it or add notes. All changes will be seen only by you. Learn more »
launch autoscroll
font size
0
reset
how to read this tab
guitar tuner
edit
Autoscroll
slow
fast
+/-
esc
set tempo
stop
Tunning;Standard Tunning
hello  nga  pala  sa  mga  kabanda  ko  dyan, yung  mga  TITOY'S  din  at  sa  mga  
 magawa.  enjoy  lang  kayo  pinag-hirapan  ko rin to eh! he he he he...........
                            "PARE KO"
    ADDLIB:
e--------------------------------------9-6-9-6-9/11-9/6-7-6-7-6---------=
B-------7-------7-9-7---7-----7-9/11-9----------------------------------=
G-3/5-------6-8-------8---6-8-------------------------------------------=
D-----------------------------------------------------------------------=
A-----------------------------------------------------------------------=
E-----------------------------------------------------------------------=

e-----9-9/11-9-9-7-7-6-7-6-6/9------------------------------------------=
B--7----------------------------7---------------------------------------=
G-----------------------------------------------------------------------=
D-----------------------------------------------------------------------=
A-----------------------------------------------------------------------=
E-----------------------------------------------------------------------=
Suggest correction
Creating personal tab
Creating personal tab
You can edit any tab online and save it as your Personal.

You can edit, replace or remove any tab part or add personal notes – all changes will be seen only by you.

Personal tabs can be accessed anytime from any device, even offline.
Learn more »
Give kudos to tab author, rate the tab!
1 2 3 4 5
comments
print report bad tab
1 comment total.
0 reply
arlo110 20 May 18, 2009 03:48 AM

kuya parang may konting mali....pero nice...pwde na rin

guest
Wanna post a correction for this tab? Suggest correction