Oops, an error
Loading. Please wait.

Pare Ko Chords

version 2
version 2

Whole song

20,675 views 3 this week
1 commentread comment
1 2 3 4 5
3 more votes to show rating
add to favorites
launch autoscroll
font size
0
reset
transpose
0
reset
simplify chords
display chords
guitar tuner
Autoscroll
slow
fast
+/-
esc
set tempo
stop
Help us to improve Ultimate-Guitar.com Take our survey!
×
Author
Difficulty
novice
Album:Ultraelectromagneticjam
Song by:Eraserheads
Artist:Sponge Cola
Song:Pare Ko
Tabbed by:Oscar Ramos
Email:xbitz_3@yahoo.com

Tuning: EADBGe (Standard)

Chords:
G     - 320033
C     - x32010
D     - xx0232
Am    - x02210
Em    - 022000
C/B   - x2555x
Dsus4 - xx0233

Intro: G-C-G-C

Verse:

G         C
  Pare ko, meron akong prublema
G                         C
  'Wag mo sabihing na naman?
G           C
  In-lab ako sa isang kolehiyala
G                    C
  Hindi ko maintindihan
Am                   C
  Wag na nating idaan sa maboteng usapan
Am                              C               Dsus4      D
  Lalu lang madaragdagan ang sakit ng ulo at bilbil sa tiyan

Verse:

G             C
  Anong sarap, kami'y naging magkaibigan
G                    C
  Napuno ako ng pag-asa
G         C
  Yun pala hanggang dun lang ang kaya
G                    C
  Akala ko ay puwede pa
Am                    C
  Masakit mang isipin, kailangang tanggapin
       Am                         C          Dsus4      D
  Kung kelan ka naging siryoso, saka ka niya gagaguhin

Chorus:

   G        D Em          C
  Ohh.. Diyos ko, ano ba naman ito
     G         D Em           C
  Di ba 'tang-ina, nagmukha akong tanga
      G              D
  Pinaasa niya lang ako
  Em                C
  Letseng pag-ibig 'to
G       D Em          C   G-D-Em  C
  Diyos ko, ano ba naman ito     wooooh..

Adlib:G-D-Em-C (2x)

    G                  D                Em              C
e|--15---------------|----15-15---17--|-17-19--17-15--|-17-15---------------------|
B|--------------15---|-17-------------|---------------|-------17-15--17-15--------|
G|-----------16------|----------------|---------------|--------------------16-14--|
D|-------------------|----------------|---------------|---------------------------|
A|-------------------|----------------|---------------|---------------------------|
E|-------------------|----------------|---------------|---------------------------|

   G                    D                        Em                        C
e|--------------------|------------------------|-------------------------|---------------------|
B|--------------------|-12---------------------|-------------------------|-----------15b---15--|
G|-12-----12-------12-|----14-12-----12--------|---------12-14--12----14-|-16--14-12-----------|
D|-----14-------14----|----------14------14-12-|------14-----------14----|---------------------|
A|--------------------|------------------------|-------------------------|---------------------|
E|--------------------|------------------------|-------------------------|---------------------|


Verse:

G           C
  Sabi niya, ayaw niya munang magkasyota
G                  C
  Dehins ako naniwala
G             C
  Di nagtagal, naging ganun na rin ang tema
G                           C
  Kulang na lang ay sagot niya
Am                      C
  Ba't ba ang labo niya, di ko maipinta
       Am                         C            Dsus4-D
  Hanggang kelan maghihintay, ako ay nabuburat na

Bridge:

    Am-C       G       D
  Pero, minamahal ko siya
       Am-C      G        D
  Di biro, T.L. ako sa kanya
        Am           C            G      Em
  Alam kong nababaduyan ka na sa mga sinasabi ko
       Am                         D
  Pero sana naman ay maintindihan mo

Verse:
 G        C             G         C
  O pare ko (o pare ko), meron ka bang maipapayo
 G                  C
  Kung wala ay okey lang (kung wala ay okey lang)
 G          C                       G            C
  Kailangan lang ay (kailangan lang) ang iyong pakikiramay
 G       C             G           C
  Nandito ka ay ayos na (nandito ka ay ayos na)
 Am                    C
  Masakit mang isipin, kailangang tanggapin
 Am
  Kung kelan ka naging seryoso
 C             Dsus4  D
  Saka ka niya gagaguhin

Chorus:

   G        D Em          C
  Ohh.. Diyos ko, ano ba naman ito
     G         D Em           C
  Di ba 'tang-ina, nagmukha akong tanga
      G              D
  Pinaasa niya lang ako
  Em                C
  Letseng pag-ibig 'to
G       D Em          C   G
  Diyos ko, ano ba naman ito 
             D Em           C
  Di ba 'tang-ina, nagmukha akong tanga
      G              D
  Pinaasa niya lang ako
  Em                C
  Letseng pag-ibig 'to
G       D Em          C   
  Diyos ko, ano ba naman ito
G-D   Em    C  C/B  G
  Hoh hoh, woh hoh hoh... Yeah..


Comment?Email or Message lng sa friendster..
xbitz_3@yahoo.com add me..
Suggest correction
Give kudos to tab author, rate the tab!
1 2 3 4 5
comments
print report bad tab
1 comment total.
0 reply
wackyboy 40 May 27, 2007 10:39 PM

e|--15---------------|----15-15---17--|-17-19--17-15--|-17-15---------------------|
B|--------------15---|-17-------------|---------------|-------17-15--17-15--------|
G|-----------16------|----------------|---------------|--------------------16-14--|
D|-------------------|----------------|---------------|---------------------------|
A|-------------------|----------------|---------------|---------------------------|
E|-------------------|----------------|---------------|---------------------------|

G D Em C
e|--------------------|------------------------|-------------------------|---------------------|
B|--------------------|-12---------------------|-------------------------|-----------15b---15--|
G|-12-----12-------12-|----14-12-----12--------|---------12-14--12----14-|-16--14-12-----------|
D|-----14-------14----|----------14------14-12-|------14-----------14----|---------------------|
A|--------------------|------------------------|-------------------------|---------------------|
E|--------------------|------------------------|-------------------------|---------------------|



tol mali ata tab mo ng lead....
eraserheads version ata to ah....

guest
You may want to rate the tab now too:
select rating
Wanna post a correction for this tab? Suggest correction