Oops, an error
Loading. Please wait.

Partisan tab

version 1
version 1

Whole song

982 views 1 this week
no commentswrite comment
1 2 3 4 5
2 more votes to show rating
add to favorites
×
Save as Personal and add changes to this tab that will be seen only by you. Learn more ›
×
You can save this tab as Personal to edit and correct it or add notes. All changes will be seen only by you. Learn more »
launch autoscroll
font size
0
reset
how to read this tab
guitar tuner
edit
Autoscroll
slow
fast
+/-
esc
set tempo
stop
Author
Song: Partisan
Artist: Sponge Cola
Album: Palabas
Submitted by: bogey

Intro:

E|-----------8-----8----8-----8---8-----8-----8----8-----8---8-----|
B|--5-5h6—-8---8-6—-6-5---5-6---6-----8---8-6—-6-5---5-6---6-------|
G|-----------------------------------------------------------------|
D|-----------------------------------------------------------------|
A|-----------------------------------------------------------------|
E|-----------------------------------------------------------------|


E|-----8-----8----8-----8---8-----8-----8----8-----8---8-----------|
B|-—-8---8-6—-6-5---5-6---6-----8---8-6—-6-5---5-6---6-------------|
G|-----------------------------------------------------------------|
D|-----------------------------------------------------------------|
A|-----------------------------------------------------------------|
E|-----------------------------------------------------------------|

Verse:
Do these chords:
C-Em-Am-F

Refrain:

E|----------------------------------------------------|
B|----------------------------------------------------|
G|----5----------------------9------------------------|
D|----5----------------------9------------------------|
A|----3----------------------7------------------------|
E|----------------------------------------------------|
   But as I change and as I age I left it all behind

E|-------------------------------------------------|
B|-------------------------------------------------|
G|-------------------------------------------------|
D|----5--------------------------------3-----------|
A|----5--------------------------------3-----------|
E|----3--------------------------------1-----------|
   Cause now your calls seem kind of mellow, kind of mellow, kind of mellow...

Chorus:

E|----------------------------------------------------------|
B|----------------------------------------------------------|
G|----5---------------------------------------------9-------|
D|----5---------------------------------------------9-------|
A|----3---------------------------------------------7-------|
E|----------------------------------------------------------|
    Will I run to you (even if I'm losing hours), will I run to you

E|----------------------------------------------------|
B|----------------------------------------------------|
G|----------------------------------------------------|
D|--------------------------5-------------3-----------|
A|--------------------------5-------------3-----------|
E|--------------------------3-------------1-----------|
    (even if I'm losing hours of sleep) today

Repeat intro

Verse 2:
Do these chords: 
C-Em-Am-F

Refrain 2:
Do Refrain power chords

About this regular guy with regular goals
And regular dreams go insane
Cause he doesn't know where to go, where to go
Where to go

Repeat chorus

Bridge:
Do these chords: Am-G-F (power chords)

Repeat chorus 2x

Outro:

E|---------------------------|
B|---------------------------|
G|-----5---------------------|
D|-----5----6----7----3------|
A|-----3----6----7----3------| 2x
E|----------4----5----1------|

            
            
Suggest correction
Creating personal tab
Creating personal tab
You can edit any tab online and save it as your Personal.

You can edit, replace or remove any tab part or add personal notes – all changes will be seen only by you.

Personal tabs can be accessed anytime from any device, even offline.
Learn more »
Give kudos to tab author, rate the tab!
1 2 3 4 5
comments
print report bad tab
guest
You may want to rate the tab now too:
select rating
Wanna post a correction for this tab? Suggest correction