Oops, an error
Loading. Please wait.

Pasubali tab

version 1
version 1

Whole song

14,315 views 36 this week
3 commentsread comments
1 2 3 4 5
3 more votes to show rating
add to favorites
×
Save as Personal and add changes to this tab that will be seen only by you. Learn more ›
×
You can save this tab as Personal to edit and correct it or add notes. All changes will be seen only by you. Learn more »
launch autoscroll
font size
0
reset
how to read this tab
guitar tuner
edit
Autoscroll
slow
fast
+/-
esc
set tempo
stop
Author
Pasubali by sponge cola
Tabbed by: sharlie adrian enriquez

Listen for timing, tinamad na kc ako eh..
Intro:
-|------------------------------------------------------------------------|-
-|------------------------------------------------------------------------|-
-|-3-7-10--------------77553355----10-10887788----------------------------|-
-|-3-7-10-8--8-10-7-7--xxxxxxxx-4x--x--xxxxxxx-4x-------------------------|-
-|-1-5--8--10------8---55331133-----8--8665566----------------------------|-
-|------------------------------------------------------------------------|-

Verse:Bb-D-Eb-Bb hindi complete chords to ha power chords to na may dead string

Guitar 2
-|-8--12-13--8------------------------------------------------------------|-
-|11--15-16-11------------------------------------------------------------|-
-|10--14-15-10------------------------------------------------------------|-
-|-8--12-13--8------------------------------------------------------------|-
-|-8--12-13--8------------------------------------------------------------|-
-|------------------------------------------------------------------------|-

Refrain:
-|------------------------------------------------------------------------|-
-|------------------------------------------------------------------------|-
-|-----8------------------------------------------------------------------|-
-|-5-3-8-2x---------------------------------------------------------------|-
-|-5-3-6------------------------------------------------------------------|-
-|-3-1--------------------------------------------------------------------|-

Chorus:
-|------------------------------------------------------------------------|-
-|------------------------------------------------------------------------|-
-|-3-7-10---3-7-10--------------------------------------------------------|-
-|-3-7-10-4-3-7-10-8-10-7-------------------------------------------------|-
-|-1-5--8-4-1-5--8-8-10-7-------------------------------------------------|-
-|--------2--------6--8-5-------------------------------------------------|-

Interlude:
-|------------------------------------------------------------------------|-
-|------------------------------------------------------------------------|-
-|-10-10-10-12-6-8-8------------------------------------------------------|-
-|---8--8--8--------------------------------------------------------------|-
-|------------------------------------------------------------------------|-
-|------------------------------------------------------------------------|-

Repeat verse, refrain and chorus then repeat refrain but only 1 time instead of two times

Solo:
-|------------------------------------------------------------------------|-
-|------------------------------------------------------------------------|-
-|------------------------------------------------------------------------|-
-|----3----3--------------------------------------------------------------|-
-|--0----0----------------------------------------------------------------|-
-|-2-2--3-3---------------------------------------------------------------|-

just repeat until chorus..

Outro:
-|--------------------------------------|-
-|--------------------------------------|-
-|-1010887788---------------------------|-
-|--x-xxxxxxx-3x--8---8-10-7-7-8-8------|-
-|--8-8665566------10-------8-----------|-
-|--------------------------------------|-

may band ako, Coda seven:
Archie escasio- Vocals and guitars
Sharlie Enriquez- Guitars and vocals
Robert Angusto- Bass and Vocals
Patrick Ramirez- Drums

            
            
Suggest correction
Creating personal tab
Creating personal tab
You can edit any tab online and save it as your Personal.

You can edit, replace or remove any tab part or add personal notes – all changes will be seen only by you.

Personal tabs can be accessed anytime from any device, even offline.
Learn more »
Give kudos to tab author, rate the tab!
1 2 3 4 5
comments
print report bad tab
3 comments total.
0 reply
f1f2 774 Nov 09, 2006 11:40 PM

Guitar 2
-|-8--12-13--8------------------------------------------------------------|-
-|11--15-16-11------------------------------------------------------------|-
-|10--14-15-10------------------------------------------------------------|-
-|-8--12-13--8------------------------------------------------------------|-
-|-8--12-13--8------------------------------------------------------------|-
-|------------------------------------------------------------------------|-

wow nice chords

0 reply
nupandu07 10 Nov 11, 2006 10:33 PM

ayus 2ng tab na 2... very good hehehe...

0 reply
happy713 381 Nov 17, 2006 06:58 PM

salamat sa tab dood. me like this song.

guest
You may want to rate the tab now too:
select rating
Wanna post a correction for this tab? Suggest correction