Oops, an error
Loading. Please wait.

Pasubali tab

version 2
version 2

Whole song

7,790 views 12 this week
1 commentread comment
1 2 3 4 5
1 last vote to show rating
add to favorites
×
Save as Personal and add changes to this tab that will be seen only by you. Learn more ›
×
You can save this tab as Personal to edit and correct it or add notes. All changes will be seen only by you. Learn more »
launch autoscroll
font size
0
reset
how to read this tab
guitar tuner
edit
Autoscroll
slow
fast
+/-
esc
set tempo
stop
Author
Title: Pasubali
Artist: Spongecola
Album: Transit
Tabber: Koko Capule
Tuning: 1 half-step down (Eb,Ab,Db,Gb,Bb,Eb)

pinakikinggan ko ung cd
ng kaibigan ko nung narinig ko to.
nagustuhan ko.
dinownload ko.
kinapa ko.

s <----slide
h <----hammer-on
x <----muted
. <----palm mute

Intro:

Gtr.1
    Bb              D               G               Bb
Eb|---------------------------------------------------|
Bb|---------------------------------------------------|
Gb|-4-4-4-4-4-4-4-4s8-8-8-8-8-8-8-8-----------------4-|
Db|-4-4-4-4-4-4-4-4s8-8-8-8-8-8-8-8-6-6-6-6-6-6-6-6-4-|
Ab|-2-2-2-2-2-2-2-2s6-6-6-6-6-6-6-6-6-6-6-6-6-6-6-6-2-|
Eb|---------------------------------4-4-4-4-4-4-4-4---|

Gtr.2
    Bb              D               Eb
Eb|---------------------------------------------------------|
Bb|---------------------------------------------------------|
Gb|-4-4-4-4-4-4-4-4s8-8-8-8-8-8-8-8-11-11-11-11-11-11-11-11-|
Db|-4-4-4-4-4-4-4-4s8-8-8-8-8-8-8-8--9--9--9--9--9--9--9--9-|
Ab|-2-2-2-2-2-2-2-2s6-6-6-6-6-6-6-6--9--9--9--9--9--9--9--9-|
Eb|---------------------------------------------------------|

  Bb
 ---------------------------------------------------------------------|
 ---------------------------------------------------------------------|
 s4---4-4h6-3---3-3h4-------------------------------------------------|
 ---6---------4-------------------------------------------------------|
 ---------------------------------------------------------------------|
 ---------------------------------------------------------------------|
----------------------------------------------------------------------|
part2:

Gtr.1
    Bb              D               G               F#
Eb|-----------------------------------------------------------------|
Bb|-----------------------------------------------------------------|
Gb|-4-4-4-4-4-4-4-4s8-8-8-8-8-8-8-8---------------------------------|
Db|-4-4-4-4-4-4-4-4s8-8-8-8-8-8-8-8-6-6-6-6-6-6-6-6s5-5-5-5-5-5-5-5-|
Ab|-2-2-2-2-2-2-2-2s6-6-6-6-6-6-6-6-6-6-6-6-6-6-6-6s5-5-5-5-5-5-5-5-|
Eb|---------------------------------4-4-4-4-4-4-4-4s3-3-3-3-3-3-3-3-|

    Bb              D               G               Bb      A
Eb|-----------------------------------------------------------------|
Bb|-----------------------------------------------------------------|
Gb|-4-4-4-4-4-4-4-4s8-8-8-8-8-8-8-8---------------------------------|
Db|-4-4-4-4-4-4-4-4s8-8-8-8-8-8-8-8-6-6-6-6-6-6-6-6s9-9-9-9s8-8-8-8-|
Ab|-2-2-2-2-2-2-2-2s6-6-6-6-6-6-6-6-6-6-6-6-6-6-6-6s9-9-9-9s8-8-8-8-|
Eb|---------------------------------4-4-4-4-4-4-4-4s7-7-7-7s6-6-6-6-|

Gtr.2
    D   C   Bb  C              F    Eb  D   Eb
Eb|-----------------|     Eb|---------------------------------------|
Bb|-----------------|     Bb|---------------------------------------|
Gb|s8-8-6-6-4-4-6---| x4  Gb|-10-10-9-9-8-8-9-----------------------| x4
Db|sx-x-x-x-x-x-x---|     Db|--x--x-x-x-x-x-x-----------------------|
Ab|s6-6-4-4-2-2-4---|     Ab|--8--8-7-7-6-6-7-----------------------|
Eb|-----------------|     Eb|---------------------------------------|

or, if tou want it done easier, do this:

Eb|-----------------|     Eb|---------------------------------------|
Bb|-----------------|     Bb|-7-7-5-5-4-4-5-5-----------------------|
Gb|-8-8-6-6-4-4-6-6-| x4  Gb|---------------------------------------| x4
Db|-----------------|     Db|---------------------------------------|
Ab|-----------------|     Ab|---------------------------------------|
Eb|-----------------|     Eb|---------------------------------------|
--------------------------------------------------------------------|
Verse1:

Gtr.1 clean
   Bb              Dm               Eb              B
Eb|--------------------------------------------------------------------|
Bb|--------------------------------------------------------------------|
Gb|-4-4-4-4-4-4-4-4-8-8-8-8-8-8-8-8-9-9-9-9-9-9-9-9--------------------| x2
Db|-4-4-4-4-4-4-4-4-8-8-8-8-8-8-8-8-9-9-9-9-9-9-9-9--------------------|
Ab|-2-2-2-2-2-2-2-2-6-6-6-6-6-6-6-6-7-7-7-7-7-7-7-7-9-9-9-9-9-9-9-9----|
Eb|-------------------------------------------------9-9-9-9-9-9-9-9----|
----------------------------------------------------7-7-7-7-7-7-7-7----|
Pre-chorus:

Gtrs.1,2
   Gm   Fm   Eb
Eb|----------------------------|    on the second time you play this,
Bb|----------------------------|     strum more "Eb's"
Gb|-4----2----1-1-1-1-1-1-1-1--| x2   just listen.
Db|-6----4----2-2-2-2-2-2-2-2--|
Ab|-6----4----2-2-2-2-2-2-2-2--|
Eb|-4----2----0-0-0-0-0-0-0-0--|
-------------------------------|
Chorus:

Gtr1.-clean
Gtr2.-distorted/overdriven

Gtr.1
    Bb              D               G               F#
Eb|-------------------------------------------------------------------|
Bb|-------------------------------------------------------------------|
Gb|-4-4-4-4-4-4-4-4s8-8-8-8-8-8-8-8-----------------------------------|
Db|-4-4-4-4-4-4-4-4s8-8-8-8-8-8-8-8-6-6-6-6-6-6-6-6s5-5-5-5-5-5-5-5---|
Ab|-2-2-2-2-2-2-2-2s6-6-6-6-6-6-6-6-6-6-6-6-6-6-6-6s5-5-5-5-5-5-5-5---|
Eb|---------------------------------4-4-4-4-4-4-4-4s3-3-3-3-3-3-3-3---|

    Bb              D               G               Bb      A
Eb|-------------------------------------------------------------------|
Bb|-------------------------------------------------------------------|
Gb|-4-4-4-4-4-4-4-4s8-8-8-8-8-8-8-8-----------------------------------|
Db|-4-4-4-4-4-4-4-4s8-8-8-8-8-8-8-8-6-6-6-6-6-6-6-6s9-9-9-9s8-8-8-8---|
Ab|-2-2-2-2-2-2-2-2s6-6-6-6-6-6-6-6-6-6-6-6-6-6-6-6s9-9-9-9s8-8-8-8---|
Eb|---------------------------------4-4-4-4-4-4-4-4s7-7-7-7s6-6-6-6---|

Gtr.2
    Bb              D               F
Eb|----------------------------------------------------------
Bb|----------------------------------------------------------
Gb|-4-4-4-4-4-4-4-4s8-8-8-8-8-8-8-8-11-11-11-11-11-11-11-11--
Db|-4-4-4-4-4-4-4-4s8-8-8-8-8-8-8-8-11-11-11-11-11-11-11-11--
Ab|-2-2-2-2-2-2-2-2s6-6-6-6-6-6-6-6--9--9--9--9--9--9--9--9--
Eb|----------------------------------------------------------

 F#
-----------------|
-----------------|
-----------------|
-5-5-5-5-5-5-5-5-|
-5-5-5-5-5-5-5-5-|
-3-3-3-3-3-3-3-3-|


   Bb              D               G               
Eb|------------------------------------------------
Bb|------------------------------------------------
Gb|-4-4-4-4-4-4-4-4s8-8-8-8-8-8-8-8-9-9-9-9-9-9-9--
Db|-4-4-4-4-4-4-4-4s8-8-8-8-8-8-8-8-9-9-9-9-9-9-9--
Ab|-2-2-2-2-2-2-2-2s6-6-6-6-6-6-6-6-7-7-7-7-7-7-7--
Eb|------------------------------------------------


   Bb      A
---------------------|
---------------------|
---------------------|
-6s9-9-9-9s8-8-8-8---|
-6s9-9-9-9s8-8-8-8---|
-4s7-7-7-7s6-6-6-6---|


----------------------------------------------------------------------|
Adlib:

Gtr.2 clean

Eb|--------------------4-4------------------------------------------------|
Bb|-4------4------4--------5-5-4-4----------------------------------------|
Gb|---4------4------4-----------------------------------------------------|
Db|-----------------------------------------------------------------------|
Ab|-----------------------------------------------------------------------|
Eb|-----------------------------------------------------------------------|
--------------------------------------------------------------------------|
Verse2:


Gtr.1 clean
   Bb              Dm               F 
Eb|---------------------------------------------------------|
Bb|---------------------------------------------------------|
Gb|-4-4-4-4-4-4-4-4-8-8-8-8-8-8-8-8-11-11-11-11-11-11-11-11-|
Db|-4-4-4-4-4-4-4-4-8-8-8-8-8-8-8-8-11-11-11-11-11-11-11-11-|
Ab|-2-2-2-2-2-2-2-2-6-6-6-6-6-6-6-6--9--9--9--9--9--9--9--9-|
Eb|---------------------------------------------------------|

 Bb
--------------------|
--------------------| x2
--------------------|
-9-9-9-9-9-9-9-9----|
-9-9-9-9-9-9-9-9----|
-7-7-7-7-7-7-7-7----|

Pre-chorus:

Gtrs.1,2
   Gm   Fm   Eb
Eb|----------------------------|    on the second time you play this,
Bb|----------------------------|     strum more "Eb's"
Gb|-4----2----1-1-1-1-1-1-1-1--| x2   just listen.
Db|-6----4----2-2-2-2-2-2-2-2--|
Ab|-6----4----2-2-2-2-2-2-2-2--|
Eb|-4----2----0-0-0-0-0-0-0-0--|
-------------------------------|
Repeat chorus

Repeat pre-chorus(a little different though)
---------------------------------------------------------------------
Adlib:

Gtr.2 clean

Eb|-----------------------------------|
Bb|-------0-------0-------0-------0---|
Gb|---1-------1-------1-------1-----0-| x3 guitar 1
Db|-----------------------------------|    will enter
Ab|-----------------------------------|    on the 3rd time
Eb|-2---2---3---3---4---4---3---3-----|    this is played

Gtr.1
     F               F#              G               Bb
Eb|------------------------------------------------------------------|
Bb|------------------------------------------------------------------|
Gb|------------------------------------------------------------------|
Db|------------------------------------------------------------------|
Ab|-s4-4-4-4-4-4-4-4-5-5-5-5-5-5-5-5-6-6-6-6-6-6-6-6-9-9-9-9-9-9-9-9-|
Eb|-s2-2-2-2-2-2-2-2-3-3-3-3-3-3-3-3-4-4-4-4-4-4-4-4-7-7-7-7-7-7-7-7-|
    . . . . . . . . . . . . . . . . . . . . . . . . . . . . . . . .

if you listen closely, you will hear a natural harmonic...
and a pickslide...

----------------------------------------------------------------------------
Reapeat chorus,

    Bb              D               G               F#
Eb|-----------------------------------------------------------------|
Bb|-----------------------------------------------------------------|
Gb|-4-4-4-4-4-4-4-4s8-8-8-8-8-8-8-8---------------------------------|
Db|-4-4-4-4-4-4-4-4s8-8-8-8-8-8-8-8-6-6-6-6-6-6-6-6s5-5-5-5-5-5-5-5-|
Ab|-2-2-2-2-2-2-2-2s6-6-6-6-6-6-6-6-6-6-6-6-6-6-6-6s5-5-5-5-5-5-5-5-|
Eb|---------------------------------4-4-4-4-4-4-4-4s3-3-3-3-3-3-3-3-|

    Bb              D               G               Bb      G
Eb|-----------------------------------------------------------------|
Bb|-----------------------------------------------------------------|
Gb|-4-4-4-4-4-4-4-4s8-8-8-8-8-8-8-8---------------------------------|
Db|-4-4-4-4-4-4-4-4s8-8-8-8-8-8-8-8-6-6-6-6-6-6-6-6s9-9-9-9s6-6-6-6-|
Ab|-2-2-2-2-2-2-2-2s6-6-6-6-6-6-6-6-6-6-6-6-6-6-6-6s9-9-9-9s6-6-6-6-|
Eb|---------------------------------4-4-4-4-4-4-4-4s7-7-7-7s4-4-4-4-|

in this second riff above, guitar 2 will do this...
    D   C   Bb  C   D
Eb|-------------------------------------|
Bb|-------------------------------------|
Gb|-8-8-6-6-4-4-6-6-8-8-8-8-8-8-8-8-8-8-|
Db|-x-x-x-x-x-x-x-x-x-x-x-x-x-x-x-x-x-x-|
Ab|-6-6-4-4-2-2-4-4-6-6-6-6-6-6-6-6-6-6-|
Eb|-------------------------------------|

then

    D   C   Bb  C
Eb|---------------------------------------------------------------------|
Bb|---------------------------------------------------------------------|
Gb|-8-8-6-6-4-4-6-6-----------------------------------------------------| x2
Db|-x-x-x-x-x-x-x-x-----------------------------------------------------|
Ab|-6-6-4-4-2-2-4-4-----------------------------------------------------|
Eb|---------------------------------------------------------------------|
------------------------------------------------------------------------|
Bridge:

Gtr.1
    Bb              D               G               F#
Eb|-----------------------------------------------------------------|
Bb|-----------------------------------------------------------------|
Gb|-4-4-4-4-4-4-4-4s8-8-8-8-8-8-8-8---------------------------------|
Db|-4-4-4-4-4-4-4-4s8-8-8-8-8-8-8-8-6-6-6-6-6-6-6-6s5-5-5-5-5-5-5-5-|
Ab|-2-2-2-2-2-2-2-2s6-6-6-6-6-6-6-6-6-6-6-6-6-6-6-6s5-5-5-5-5-5-5-5-|
Eb|---------------------------------4-4-4-4-4-4-4-4s3-3-3-3-3-3-3-3-|

Gtr.2
Eb|--------------------------------------------------------------------|
Bb|--------------------------------------------------------------------|
Gb|-10-10-9-9-8-8-9----------------------------------------------------| x4
Db|--x--x-x-x-x-x-x----------------------------------------------------|
Ab|--8--8-6-6-7-7-6----------------------------------------------------|
Eb|--------------------------------------------------------------------|
-----------------------------------------------------------------------|
Outro:

Gtr.1
    Bb              D               G
Eb|------------------------------------------------------------------------|
Bb|------------------------------------------------------------------------|
Gb|-4-4-4-4-4-4-4-4s8-8-8-8-8-8-8-8----------------------------------------|
Db|-4-4-4-4-4-4-4-4s8-8-8-8-8-8-8-8-6-6-6-6-6-6-6-6------------------------|
Ab|-2-2-2-2-2-2-2-2s6-6-6-6-6-6-6-6-6-6-6-6-6-6-6-6------------------------|
Eb|---------------------------------4-4-4-4-4-4-4-4------------------------|

Gtr.2
    Bb              D               F
Eb|---------------------------------------------------------|
Bb|---------------------------------------------------------|
Gb|-4-4-4-4-4-4-4-4s8-8-8-8-8-8-8-8-11-11-11-11-11-11-11-11-|
Db|-4-4-4-4-4-4-4-4s8-8-8-8-8-8-8-8-11-11-11-11-11-11-11-11-|
Ab|-2-2-2-2-2-2-2-2s6-6-6-6-6-6-6-6--9--9--9--9--9--9--9--9-|
Eb|---------------------------------------------------------|

---------------------------------------------------------------------------|
Gtr.1
       Bb      G
Eb|---------------|
Bb|---------------|
Gb|---------------|
Db|-s---9---s---8-|
Ab|-s---9---s---8-|
Eb|-s---7---s---6-|

Gtr.2

Eb|------------------------------------------------------------------------|
Bb|------------------------------------------------------------------------|
Gb|s4---4-4h6-3---3-3h4----------------------------------------------------|
Db|---6---------4----------------------------------------------------------|
Ab|------------------------------------------------------------------------|
Eb|------------------------------------------------------------------------|
---------------------------------------------------------------------------|
that's it !!!

Lyrics

Verse1:

Kung pwede lang 'wag mo na 'tong iwasan...?
at 'wag mo ring ituring na biro...

marahil to'y 'di mo inaasahan,
pero sana'y 'wag ipinid ang pinto...

Pre-chorus:

Itikom ang bibig!
mata'y ibaling sa'kin;
pakinggan mo ang sasabihin ko!!!

Chorus:

Kailan mo ba matututunan?
kailan mo ba pagsisigawan?
na 'di mo na 'pagkakailang tayo?

kay rami nang pinagdaanan,
ano pa ba ang iyong kailangan?
nagsusumamamo na sabihin mo...

Verse2:

Ang diwa ko'y tigib sa kaiisip...
sa sarili langing may kinikimkim...
patuloy lamang bang mananaghinip?
at mananatili lang  na nakapikit?

Pre-chorus:

Ako'y mayroong batid!
ito'y iyong pag-amin!
hindi na natin maiiwasan 'to!!!

Repeat chorus

Repeat 1st pre-chorus

Naiintindihan mo ba?

Repeat chorus

Nagsusumamo na sabihin mo!!!

Woaaaahhhh!!!!
Suggest correction
Creating personal tab
Creating personal tab
You can edit any tab online and save it as your Personal.

You can edit, replace or remove any tab part or add personal notes – all changes will be seen only by you.

Personal tabs can be accessed anytime from any device, even offline.
Learn more »
Give kudos to tab author, rate the tab!
1 2 3 4 5
comments
print report bad tab
1 comment total.
0 reply
xperiment_666 121 Sep 01, 2007 05:23 AM

nys tab

guest
You may want to rate the tab now too:
select rating
Wanna post a correction for this tab? Suggest correction