Oops, an error
Loading. Please wait.

Puso Tab

version 1
version 1

Whole song

9,925 views 3 this week
no commentswrite comment
1 2 3 4 5
please rate
add to favorites
launch autoscroll
font size
0
reset
how to read this tab
guitar tuner
Autoscroll
slow
fast
+/-
esc
set tempo
stop
Help us to improve Ultimate-Guitar.com Take our survey!
×
Contributor
Tuning
D# G# C# F# A# D#
                             Puso by Sponge Cola

Tab by: Mark Andrew Ortiz
Date: September 24, 2008
Time: 8:55 pm

Tuning: Eb

Gtr I: Rhythm Guitar
Gtr II: Lead Guitar
Gtr III: Bass

Intro: Drum Beat

VERSE I:

Gtr III:
|------------------------|
|------------------------|
|------------------------|
|-0~---------------------|
E
 Hinihingal ka lang

|--------------------------|
|--------------------------|
|-/4~----------------------|
|--------------------------|
                 C#m
May oras pang natitira

|-------------------------|
|-------------------------|
|-------------------------|
|--5~---------------------|
                   A
Kahit parang ang layo pa

Habol!(Pause)

VERSE II:

Gtr 1:(Overdrive)
|-------------------------|
|-------------------------|
|-9~----------------------|
|-9~----------------------|
|-7~----------------------|
|-------------------------|
E
 Kung harangan ka man

Gtr II:
|---------------------------|
|-/16~----------------------|
|------15~--12~-------------|
|------------------13~------|
|---------------------------|
|---------------------------|

Gtr I:
|-------------------------|
|-------------------------|
|--6~---------------------|
|--6~---------------------|
|--4~---------------------|
|-------------------------|
               C#m
Sumalakay man mga bantay

|-------------------------|
|-------------------------|
|-------------------------|
|----7~-------------------|
|----7~-------------------|
|----5~-------------------|
                A
Lahat kami Maghihintay..

Habol, habol!(drums)

Refrain:
Gtr I & II:(power chords Overdrive)
      C#m
Dehado kung dehado
     B
Para sa’n pang mga galos mo
       A
Kung titiklop ka lang
Titiklop ka lang!

    C#m
Matalo kung matalo
           F#
Huwag ka sanang magkakamaling
   A
Sumuko na lang
 B
Woah!

VERSE III:

Gtr I & II:
|-----------------------------------|
|-----------------------------------|
|-9-x-9-x-x-9-----------------------|
|-9-x-9-x-x-9-(Palm mute pattern)---|
|-7-x-7-x-x-7-----------------------|
|-----------------------------------|
E
 Maagawan ka man
|-----------------------------------|
|-----------------------------------|
|-6-x-6-x-x-6-----------------------|
|-6-x-6-x-x-6-(Palm Mute Pattern)---|
|-4-x-4-x-x-4-----------------------|
|-----------------------------------|
                    C#m
Lalung huwag kang papipiga
|------------------------------------|
|------------------------------------|
|------------------------------------|
|-7-x-7-x-x-7------------------------|
|-7-x-7-x-x-7-(Palm mute Pattern)----|
|-5-x-5-x-x-5------------------------|
Kumpiyansa lang bawat bangga
Woah!

(Same chords above)
Kumaripas ka na
Humanda ka na sa paglipad
Pakpak nati’y ilalantad
Woah

Refrain:
Gtr I:
|-------------|
|-------------|
|-6~----------|
|-6~----------|
|-4~----------|
|-------------|

Gtr III: (contineous)
|-------------|
|-------------|
|-4-----------|
|-------------|
      C#m
Dehado kung dehado

gtr I:
|-----------------|
|-----------------|
|-4~--------------|
|-4~--------------|
|-2~--------------|
|-----------------|

Gtr III: (contineous)
|-------------|
|-------------|
|-2-----------|
|-------------|
     B
Para sa’n pang mga galos mo

gtr I:
|-----------------|
|-----------------|
|-2~--------------|
|-2~--------------|
|-0~--------------|
|-----------------|

gtr II:

|--------------------|
|--------------------|
|-2-2-2--------------|
|-2-2-2-(papalakas)--|
|-0-0-0--------------|
|--------------------|

gtr III:

|-----------------|
|-----------------|
|-0~--------------|
|-----------------|
       A
Kung titiklop ka lang
Titiklop ka lang!
._____________________________.

gtr I:
|-------------------|
|-------------------|
|-66-66-------------|
|-66-66-------------|
|-44-44-------------|
|-------------------|

gtr II:
|-------------|
|-------------|
|-6~/9~/11----|
|-x~/x~/x-----|
|-4~/7~/9-----|
|-------------|
    C#m
Matalo kung matalo

gtr I:
|-----------------|
|-----------------|
|-----------------|
|-44-44-----------|
|-44-44-----------|
|-22-22-----------|

gtr II:
|-------------|
|-------------|
|-\9~/11/13---|
|-\x~/x/x-----|
|-\7~/9/11----|
|-------------|
           F#
Huwag ka sanang magkakamaling

gtr I:
|--------------------|
|--------------------|
|--------------------|
|-777777777777777----|
|-777777777777777----|
|-555555555555555----|

gtrII:
|----------------------------|
|----------------------------|
|-1414141414141414-----------|
|-x-x-x-x-x-x-x-x------------|
|-1212121212121212-----------|
|----------------------------|
   A
Sumuko na lang

Gtr I & II:
|-----------------------------------|
|-----------------------------------|
|-4444444444444444444444------------|
|-4444444444444444444444------------|
|-2222222222222222222222------------|
|-----------------------------------|
 B
Woah!(pause)(drums)

Chorus:

Gtr I & II:
|-----------------------------------|
|-----------------------------------|
|-9999999999999999999999------------|
|-9999999999999999999999------------|
|-7777777777777777777777------------|
|-----------------------------------|
E
 Ang puso

|---------------------------------------|
|---------------------------------------|
|-99999999999999999999999999------------|
|-99999999999999999999999999------------|
|-66666666666666666666666666------------|
|---------------------------------------|
 Eb/E
Iaalay

|-------------------------------------------|
|-------------------------------------------|
|-666666666666666666666666666666------------|
|-666666666666666666666666666666------------|
|-444444444444444444444444444444------------|
|-------------------------------------------|

    C#m
Sa laban

|---------------------------------------|
|---------------------------------------|
|---------------------------------------|
|-77777777777777777777777777------------|
|-77777777777777777777777777------------|
|-55555555555555555555555555------------|
     A
Kapalit ay tagumpay

Repeat Chorus

Refrain:
Gtr I & II:(power chords Overdrive)
      C#m
Dehado kung dehado
     B
Para sa’n pang mga galos mo
       A
Kung titiklop ka lang
Titiklop ka lang!
.____________________________________.

gtr I & II:
|--------------------|
|--------------------|
|-66-66-66-66--------|
|-66-66-66-66--------|
|-44-44-44-44--------|
|--------------------|
    C#m
Matalo kung matalo

|--------------------|
|--------------------|
|--------------------|
|-44-44-44-44--------|
|-44-44-44-44--------|
|-22-22-22-22--------|
           F#
Huwag ka sanang magkakamaling

|----------------------------------|
|----------------------------------|
|----------------------------------|
|-777777777777777777777777777------|
|-777777777777777777777777777------|
|-555555555555555555555555555------|
   A
Sumuko na lang

|---------------------|
|---------------------|
|-4444444444444444444-|
|-4444444444444444444-|
|-2222222222222222222-|
|---------------------|
 B
Woah!

Chorus:
|------------------------|
|------------------------|
|-9~---------------------|
|-9~---------------------|
|-7~---------------------|
|------------------------|
E
 Ang puso
Ialay
Sa laban
Kapalit ay tagumpay

Chorus:
      E
Ang puso
F#
Iaalay
     G#m                A          B
Sa laban, sa laban, sa laban, sa laban mo

gtr II:
|--------------------|
|--------------------|
|--------------------|
|--------------------|
|--------------------|
|--5/7\5/7\5/12~-----|

Intrumental:

gtr I:
         E
|------------------------|
|------------------------|
|-9~---------------------|
|-9~---------------------|
|-7~---------------------|
|------------------------|

gtr II:(fill in)
|------------------------------|
|------------------------------|
|-9~/11------------------------|
|-x~/x-(6x)--------------------|
|-7~/9-------------------------|
|------------------------------|

gtr I
          G#m
|------------------------|
|------------------------|
|------------------------|
|-6~---------------------|
|-6~---------------------|
|-4~---------------------|

Gtr II: Fill in

gtr I
         C#m
|------------------------|
|------------------------|
|-6~---------------------|
|-6~---------------------|
|-4~---------------------|
|------------------------|

Gtr II:
|-/121212-11~-7/4\7-9-7-9-11-12~----------|
|--121212-11--7/4\7-9-7-9-11-12~----------|
|-----------------------------------------|
|-----------------------------------------|
|-----------------------------------------|
|-----------------------------------------|


Coda: (power chords)
      E
Ang puso
 G#m
Iaalay
     C#m
Sa laban
               A
Kapalit ay tagumpay
(Repeat thrice)

*Wahhhhhhhhhhhhh!!! para sa mga manlalaro ng Intrams sa GCs!!


wehehehe!!! 4th year na ang panalo boy!
Suggest correction What's this?
You can suggest a correction to this tab. Community and Mods will review your correction and vote to approve or reject it.
comments
We did not receive enough feedback on this tab! Please rate:
print report bad tab
1 2 3 4 5
I want to post or [tab]
guest
You may want to rate the tab now too:
select rating
Please do not post tabs as comments. Select "correction" instead!