Oops, an error
Loading. Please wait.

Regal Tab

949 views 6 this week
no commentswrite comment
1 2 3 4 5
3 more votes to show rating
add to favorites
launch autoscroll
font size
0
reset
how to read this tab
guitar tuner
Autoscroll
slow
fast
+/-
esc
set tempo
stop
Help us to improve Ultimate-Guitar.com Take our survey!
×
Author
Difficulty
Tuning
novice
D# G# C# F# A# D#
Regal By Sponge Cola
tabbed by : Greg Magoncia (magonciagreg@yahoo.com)
Tuning : Half-Step Down (E flat) 
(Most of Spongecola's songs are tuned to E flat) 
Pwede nyo rin siyang i-transpose para maging standard. 


Intro

Gtr.1

Eb)---7-------8------------7---7---------------------|
Bb)-------8-------8----10-----------10---------------|
Gb)--------------------------------------------------| (2x)
Db)--------------------------------------------------|
Ab)--------------------------------------------------|
Eb)--------------------------------------------------|

Gtr.2
       G        Cadd9        Em7         D
Eb)---333--------333---------333--------222----------|
Bb)---333--------333---------333--------333----------|
Gb)---000--------000---------000--------222----------| (2x)
Db)---000--------222---------222---------------------|
Ab)---222--------333---------222---------------------|
Eb)---333--------xxx---------xxx---------------------|


Verse

       G        Cadd9        Em7         D
Eb)---333--------333---------333--------222----------|
Bb)---333--------333---------333--------333----------|
Gb)---000--------000---------000--------222----------| 
Db)---000--------222---------222---------------------|
Ab)---222--------333---------222---------------------|
Eb)---333--------xxx---------xxx---------------------|
You are perfect as you are... ..... motion can become

       G        Cadd9        Em7         D
Eb)---333--------333---------333--------222----------|
Bb)---333--------333---------333--------333----------|
Gb)---000--------222---------222---------------------|
Ab)---222--------333---------222---------------------|
Eb)---333--------xxx---------xxx---------------------|
To be near you.....        ....Defenseless as I stare


Pre Chorus
      Am        Cadd9
Eb)--------------333---------------------------------|
Bb)---111--------333---------------------------------|
Gb)---222--------000---------------------------------| (3x)
Db)---222--------222---------------------------------|
Ab)--------------333---------------------------------|
Eb)--------------------------------------------------|

Chorus
      G        Cadd9        Em7         D
Eb)---333-------333---------333--------222----------|
Bb)---333-------333---------333--------333----------|
Gb)---000-------000---------000--------222----------| (2x)
Db)---000-------222---------222---------------------|
Ab)---222-------333---------222---------------------|
Eb)---333-------xxx---------xxx---------------------|

Repeat Intro

Repeat Verse 

Repeat Chorus

Bridge
      Em7        Cadd9        G         D
Eb)---333---------333--------333-------222-----------------|
Bb)---333---------333--------333-------333-----------------|
Gb)---000---------000--------000-------222-----------------| (2x)
Db)---222---------222--------000---------------------------|
Ab)---222---------333--------222---------------------------|
Eb)---xxx---------xxx--------333---------------------------|


     
Eb)-----10----12----10----------------------10-------------|
Bb)-----------------------13----12----13-------------------|
Gb)--------------------------------------------------------| 
Db)--------------------------------------------------------|
Ab)--------------------------------------------------------|
Eb)--------------------------------------------------------|

Repeat Chorus

Repeat Intro
Suggest correction
Give kudos to tab author, rate the tab!
1 2 3 4 5
comments
print report bad tab
guest
You may want to rate the tab now too:
select rating
Wanna post a correction for this tab? Suggest correction