Oops, an error
Loading. Please wait.

Saan Na Nga Bang Barkada Tab

19,047 views 15 this week
3 commentsread comments
1 2 3 4 5
excellent!
x 7
add to favorites
launch autoscroll
font size
0
reset
how to read this tab
guitar tuner
Autoscroll
slow
fast
+/-
esc
set tempo
stop
Help us to improve Ultimate-Guitar.com Take our survey!
×
Contributor
Title		: Saan na nga ba'ng barkada
Artist		: sponge cola
Album		: Kami napo muna ulit

Ear Tabber	: Walter Michael De la Cruz
Email add 1	: Walterfdelacruz@yahoo.com
Email add 2	: Michaelfdelacruz@yahoo.com

School		: Saint Louis University BAguio City
DAte of tab	: Aug. 31,2007
Course		: BS Electronics and Communication Engineering


---------------------
WALTER mICHAEL ROCKZ |
All Rights Reserved  |
© Copyright 2008     |
---------------------

Please Rate this tab
Add me as a friend here in ultimate-guitar.com or in friendster.
You can also send comment here in ultimate-guitar or in friendster.
Thank you.

---------------
STANDARD TUNING|
---------------


------
INTRO |  
------


/ slide
. backward strum
() mahinang strum lang 


clean guitar
               .   .
e|-------0-----2---0---|-------0------2--0----|
B|-----0-------2---2---|-----0--------2--2----|
G|---1---------2---2---|---1----------2--2----|
D|-2-------/-4---------|-2-------/--4---------|  
A|---------------------|----------------------|
E|---------------------|----------------------|

w/ gadget
e|-------------------------|
B|-------------------------|
G|-/9--8--6-----6--8-------|
D|-----------9--------9----|  
A|-------------------------|
E|-------------------------|


e|----------5----4--2-----|
B|------------------------|
G|-------6----6-----------|
D|-4--7-------------------|  
A|------------------------|
E|------------------------|



-------
Verse 1| 
-------

Yung may parenthesis dito mahina lang ung strum nya
yung tuldok backward strum yun

               .   .
e|-------0-----2---0---|
B|-----0-------2---2---|
G|---1---------2---2---|
D|-2-------/-4---------|  
A|---------------------|
E|---------------------|    

Nagsimula ang lahat sa eskwela
  
               .   .
e|-------0-----2---0--(5)-|
B|-----0-------2---2--(5)-|
G|---1---------2---2------|
D|-2-------/-4------------|  
A|------------------------|
E|------------------------|  
         
Nagsama-samang labing-dal'wa
         
               .   .
e|-------0-----2---0--(5)-|
B|-----0-------2---2--(5)-|
G|---1---------2---2------|
D|-2-------/-4------------|  
A|------------------------|
E|------------------------|         


Sa kalokohan at sa tuksuhan
    
               .   .
e|-------0-----2---0--(5)-------0-|
B|-----0-------2---2--(5)-----0---|
G|---1---------2---2--------2-----|
D|-2-------/-4------------2-------|  
A|--------------------------------|
E|--------------------------------|           
       
Hindi maawat sa isa't-isa.
   
-------
Verse 2|
-------
               .   .
e|-------0-----2---0--(5)-|
B|-----0-------2---2--(5)-|
G|---1---------2---2------|
D|-2-------/-4------------|  
A|------------------------|
E|------------------------|  
                 
Madalas ang istambay sa Cafeteria
    
               .   .
e|-------0-----2---0--(5)-|
B|-----0-------2---2--(5)-|
G|---1---------2---2------|
D|-2-------/-4------------|  
A|------------------------|
E|------------------------| 
       
Isang barkada na kay saya
  
               .   .
e|-------0-----2---0--(5)-|
B|-----0-------2---2--(5)-|
G|---1---------2---2------|
D|-2-------/-4------------|  
A|------------------------|
E|------------------------|         
   
Laging may hawak-hawak na gitara
          
               .   .
e|-------0-----2---0--(5)--5---|
B|-----0-------2---2--(5)------|
G|---1---------2---2-----------|
D|-2-------/-4-----------------|  
A|-----------------------------|
E|-----------------------------|    

Konting udyok lamang kakanta na.

-------
Refrain: strum nyo na lang dito
-------  (diskarte nyo na lang ung strumming pattern)


e|---------------0--------2-----4---------|
B|---------------2--------4-----4---------|
G|---------------2--------4-----4---------|
D|---------------2--------4-----6---------|  
A|---------------0--------2-----6---------|
E|------------------------------4---------|
    Kay simple lamang ng buhay non



e|------------4---------4----2--------------|
B|------------4---------5----4--------------|
G|------------5---------6----4--------------|
D|------------4---------6----4--------------|  
A|------------6---------4----2--------------|
E|------------4-----------------------------|

  Walang mabibigat na suliranin



e|----------0------------X----0-----4------|
B|----------2------------X----0-----5------|
G|----------2------------3----1-----6------|
D|----------2------------3----2-----6------|  
A|----------0------------1----2-----4------|
E|----------------------------0------------|

Problema lamang laging kulang ang datung

e|---------2--------2---------0-----------|
B|---------2--------4---------0-----------|
G|---------2--------4---------1-----------|
D|---------4--------4---------2-----------|  
A|---------4--------2---------2-----------|
E|---------2------------------0-----------|

Saan na napunta   ang      panahon?


-------
Chorus | Walter Michael De la Cruz Rockz
-------
one strum each


e|--0---------------2--------------------|
B|--0---------------4--------------------|
G|--1---------------4--------------------|
D|--2---------------4--------------------|  
A|--2---------------2--------------------|
E|--0------------------------------------|

  Saan na nga ba, saan na nga ba?

e|--0-----------------------------------|
B|--2-----------------------------------|
G|--2-----------------------------------|
D|--2-----------------------------------|  
A|--0-----------------------------------|
E|--------------------------------------|

    Saan na napunta ang panahon

e|--0---------------2--------------------|
B|--0---------------4--------------------|
G|--1---------------4--------------------|
D|--2---------------4--------------------|  
A|--2---------------2--------------------|
E|--0------------------------------------|

  Saan na nga ba, saan na nga ba?

e|--0-----------------------------------|
B|--2-----------------------------------|
G|--2-----------------------------------|
D|--2-----------------------------------|  
A|--0-----------------------------------|
E|--------------------------------------|

    Saan na napunta ang panahon


-------
Verse 3|
-------

               .   .
e|-------0-----2---0---|
B|-----0-------2---2---|
G|---1---------2---2---|
D|-2-------/-4---------|  
A|---------------------|
E|---------------------|    


Sa unang ligaw kayo'y magkasama

               .   .
e|-------0-----2---0---|
B|-----0-------2---2---|
G|---1---------2---2---|
D|-2-------/-4---------|  
A|---------------------|
E|---------------------| 

Magkasabwat sa pambobola

               .   .
e|-------0-----2---0---|
B|-----0-------2---2---|
G|---1---------2---2---|
D|-2-------/-4---------|  
A|---------------------|
E|---------------------| 


Walang sikreto kayong tinatago

               .   .
e|-------0-----2---0---0---0-|
B|-----0-------2---2----0-0--|
G|---1---------2---2-----2---|
D|-2-------/-4---------------|  
A|---------------------------|
E|---------------------------| 

O kay sarap ng samahang barkada



      .        .
e|---------------------------|
B|---------------------------|
G|----9--------6-------------|
D|----9--------7-------------|  
A|-7-----------7-------------|
E|----------5----------------|

Nagkawatakan na sa kolehiyo

      .        .
e|---------------------------|
B|---------------------------|
G|----9--------6-------------|
D|----9--------7-------------|  
A|-7-----------7-------------|
E|----------5----------------|           

Kanya-kanya na ang lakaran
 
      .        .
e|---------------------------|
B|---------------------------|
G|----9--------6-------------|
D|----9--------7-------------|  
A|-7-----------7-------------|
E|----------5----------------|
            
Kahit minsanan na lang kung magkita
    
      .        .
e|---------------------------|
B|---------------------------|
G|----9--------6-------------|
D|----9--------7-------------|  
A|-7-----------7-------------|
E|----------5----------------|
          
Pagkakaibiga'y hindi nawala.

-------
Refrain: strum nyo na lang dito
-------  (diskarte nyo na lang ung strumming pattern)


e|---------------0--------2-----4---------|
B|---------------2--------4-----4---------|
G|---------------2--------4-----4---------|
D|---------------2--------4-----6---------|  
A|---------------0--------2-----6---------|
E|------------------------------4---------|
   At kung saan na napadpad ang ilan


e|------------4---------------4----2------|
B|------------4---------------5----4------|
G|------------5---------------6----4------|
D|------------4---------------6----4------|  
A|------------6---------------4----2------|
E|------------4---------------------------|

  Sa dating eskwela meron ding naiwan



e|----------0------------X----0-----4------|
B|----------2------------X----0-----5------|
G|----------2------------3----1-----6------|
D|----------2------------3----2-----6------|  
A|----------0------------1----2-----4------|
E|----------------------------0------------|

 Meron pa ngang mga ilang nawala na lang

e|---------2--------2---------0-----------|
B|---------2--------4---------0-----------|
G|---------2--------4---------1-----------|
D|---------4--------4---------2-----------|  
A|---------4--------2---------2-----------|
E|---------2------------------0-----------|

 Nakaka-miss ang dating samahan


-------
Chorus | Walter Michael De la Cruz Rockz
-------


e|--0---------------2--------------------|
B|--0---------------4--------------------|
G|--1---------------4--------------------|
D|--2---------------4--------------------|  
A|--2---------------2--------------------|
E|--0------------------------------------|

  Saan na nga ba, saan na nga ba?

e|--0-----------------------------------|
B|--2-----------------------------------|
G|--2-----------------------------------|
D|--2-----------------------------------|  
A|--0-----------------------------------|
E|--------------------------------------|

    Saan na nga bang barkada ngayon

e|--0---------------2--------------------|
B|--0---------------4--------------------|
G|--1---------------4--------------------|
D|--2---------------4--------------------|  
A|--2---------------2--------------------|
E|--0------------------------------------|

  Saan na nga ba, saan na nga ba?

e|--0-----------------------------------|
B|--2-----------------------------------|
G|--2-----------------------------------|
D|--2-----------------------------------|  
A|--0-----------------------------------|
E|--------------------------------------|

    Saan na nga bang barkada ngayon      

------
Adlib:|
------
b bent
h hammer

e|-7h9--7-------------|-----7----------------|
B|---------9--7-----7-|7h9----9--7-----------|
G|---------------9----|------------9-9h11--9-|
D|--------------------|----------------------|  
A|--------------------|----------------------|
E|--------------------|----------------------|


e|----------7-7--7h9-7---------------------|
B|----7--9-------------7b------------------|
G|-9---------------------------------------|
D|-----------------------------------------|  
A|-----------------------------------------|
E|-----------------------------------------|


e|---------------7---------------------|
B|------------9----9--7---7------------|
G|------9-11------------9----9---------|
D|-9h11--------------------------------|  
A|-------------------------------------|
E|-------------------------------------|



e|--------7---------7-----------12b----|
B|---7--9----9-7-----------------------|
G|-9-------------9----9------9---------|
D|-------------------------------------|  
A|-------------------------------------|
E|-------------------------------------|



   E-F#m-A ( piano dito sa part na to)       
   
  
   Ilang taon din ang nakalipas           
   Bawat isa sa amin, tatay na           
   Nagsusumikap upang yumaman         
   At guminhawang kinabukasan.
   Paminsan-minsan kami'y nagkikita

        E        F#m  A
   Mga naiwan at natira
              E       F#m         A
   At gaya nung araw namin sa eskwela
             E      F#m     A
   Pag magkasama ay nagwawala

         A        B   G#m
   Napakahirap malimutan
         G#7             C#m B
   Ang saya ng aming samahan
         A               Bb   E  C#m7
   Kahit lumipas na ang ilang taon
           F#m         B     E
   Magkakabarkada pa rin ngayon.

----
Coda|
----

  E                B
   Magkaibigan, magkaibigan
  A                  
   Magkaibigan pa rin ngayon
  E                B
   Magkaibigan, magkaibigan
  A                   
   Magkabarkada pa rin ngayon.

   (Repeat Coda 3x)

   C#m                B
   Magkaibigan, magkaibigan
   A                  
   Magkaibigan pa rin ngayon
   C#m               B
   Magkaibigan, magkaibigan
   A                   
   Magkabarkada pa rin ngayon.
          REpeat 2x

   E
  Nagsimula ang lahat sa eskwela  






P.S.
_______________________________________________________
If  you've got  comments  or  suggestions  about my tab|
I wanna hear it from you!you can   send   me  a        |
message here in ultimate-guitar or in friendster at    |
Walterfdelacruz@yahoo.com or Michaelfdelacruz@yahoo.com|
You can also have your comment ragarding my tab or     |
about me. Thank you for supporting my tab.Peace out!   |
_______________________________________________________|


All Rights Reserved
© Copyright 2008

Please Support the OPM Industry. 
And also, Please Support my Tab.

Thanks.
Rock oUt.
Walter Michael Rocks Ultimate Guitar!

comments
print report bad tab
3 comments total.
0 reply
NEILWORX 62 wrote on September 9 2007, 12:01 am

Kay Walter Michael pala eh... oks na `to... Kahit hindi ko pa nattry... Maraming Salamat Po..! '^_^'

0 reply
mr_rain 1,609 wrote on September 9 2007, 03:00 am

lupet u talaga pare...tama nga..e-f#m-a...mali ako...tnx!

0 reply
echoreyn 11 wrote on November 15 2007, 12:41 am

ang galing ha...
pa2ro naman poh...
tnx..

I want to post or [tab]
guest
You may want to rate the tab now too:
select rating
Please do not post tabs as comments. Select "correction" instead!