Oops, an error
Loading. Please wait.

Transit album tab

version 2
version 2

Album

2,295 views 1 this week
11 commentsread comments
1 2 3 4 5
x 8
add to favorites
×
Save as Personal and add changes to this tab that will be seen only by you. Learn more ›
×
You can save this tab as Personal to edit and correct it or add notes. All changes will be seen only by you. Learn more »
launch autoscroll
font size
0
reset
how to read this tab
guitar tuner
edit
Autoscroll
slow
fast
+/-
esc
set tempo
stop
Album       : Transit
Artist      : Sponge cola

Ear tabber  : ROGEM S. BATTUNG
Address     : Palawan St. Sampaloc Manila
E-mail add 1: Guitarizta_rogem@yahoo.com
Contact no  : 09187229082

School      : EARIST B.S. APPLIED PHYSICS-1
Time Elapsed: ? di ko mabilang
Date        : Dec 18 2006


ROGEM - >  Dedicate ko ulit 2 sa lahat ng Friends ko lahat ng BS APPLIED PHYSICS
           mga BS. COMPUTER SCIENCE mga BS. MATH at mga BS. PSYCHOLOGY lahat ng
           taga C.A.S. at lahat ng taga EARIST hehehe

|=============================================================================|
|=============================READ=FIRST======================================|
|==========================NAPAKA=IMPORTANTE==================================|

ROGEM->2ng Ginawa ko lahat ito naka tablature format sa mga beginers po na di
      pa marunong bumasa ng tab my instructions ako send lang kayo ng message
      sa Friendster " Guitarizta_rogem@yahoo.com " or E-mail nyo ko d2
      Guitarizta_gem@yahoo.com sabihin nyo kung kailangan nyo ng instruction
      tapos forward ko sa inyo ok>

ROGEM->Gumawa dn ako ng 2 uri ng mga tab d2 ung nka "Eb Ab Db Gb Bb eb" Tune
      or Half Step down tunning  at isang "E A D G B e" o  tintwag ng
      Standard tunning gumwa ako nun para sa mga beginers na di pa alam
      mag tune ng Gitara nila sa Eb.

      lahat ng song sa Tuliro album ay naka Eb mas reccomend ko Eb kc un tlga
      ung pagkakaplay nila sa E-Standard katunog din naman kaso medyo
      mahihirapan kyo sa Chords ng ibang kanta.

ROGEM->Bago nyo iplay ung tab na nakuha nyo make sure na naka tono ng maayos
     ung gitara depende kung anong tunning ang kinuha nyo para malaman nyo
     qng mali ba or tama ung nakalagay d2,

ROGEM->sa tingin ko kumpleto 2ng nilagay qng tab pwd nyo tignan qng gusto nyo
      malaman sa tingin ko mga 90% accurate 2 pasensya na nga pla sa mga nag
      rerequest na itab ko na kagad 2ng song na 2 medyo marami kc ako ginawa
      kaya di ko agad na-asikaso. pasensya na ha mga kapatid hehe??

ROGEM->Dedicate ko ulit 2 sa lahat ng Friends ko lahat ng BS APPLIED PHYSICS
       mga BS. COMPUTER SCIENCE mga BS. MATH at mga BS.PSYCHOLOGY lahat ng
       taga C.A.S. at lahat ng taga EARIST hehehe


CONTENT'S

ROGEM - > Masyado mahaba 2ng mga tab na to para mapadali kyo sa pag browse
          Press nyo CTRL-F tapus type nyo ung Title

Eb- tunning                     E - standard

1.  BITIW                       1.  BITIW-E
2.  TULIRO                      2.  TULIRO-E
3.  MOVIE                       3.  MOVIE-E
4.  THE WANDERING               4.  THE WANDERING-E
5.  GUNITA                      5.  GUNITA-E
6.  DO YOU KNOW THIS FEELING    6.  DO YOU KNOW THIS FEELING-E
8.  MY SELF IN YOU              8.  MY SELF IN YOU-E
9.  ALL WE NEED                 9.  ALL WE NEED-E
10. NOCTURNE                    10. NOCTURNE-E
11. PASUBALI                    11. PASUBALI-E
12. HARAPIN                     12. HARAPIN


|==================================================|
|==================================================|
|						   |
|                     BITIW                        |
|						   |
|==================================================|
|==================================================|
Gtr 1 = Rhytym guitar
Gtr 2 = Lead guitar
Gtr 3 = Base guitar
INTRO

eb|----------------------------|
Bb|----------------------------|
Gb|-66---666---666-x-66\44/66--| 4x
Db|-66---666---666-x-66\44/66--|
Ab|-44---444---444-x-44\22/44--|
Eb|----------------------------|

vERSE 1

ROGEM- > magkasabay ung gtr1 & gtr2
         pakingan nyo sa audio player para
	 malamn nyo kung pano iplay to

  Gtr 1
eb|---------------------------|
Bb|---------------------------|
Gb|-66---666---666---66\44/66-| 4x
Db|-66---666---666---66\44/66-|
Ab|-44---444---444---44\22/44-|
Eb|---------------------------|
  |
  | Guitar 2
eb|-----------------------------|
Bb|-----------------------------|
Gb|-66---666---/999---999\4/66--|
Db|----------------------\------| 4x
Ab|-44---444---/777---777\2/44--|
Eb|-----------------------------|

Tama, walang laglagan at
Sama-samang hahanapin ang liwanag at
Tayoy magpapaalon sa
Isang daluyong na maghahatid sa atin sa


REFRAIN

Gtr 1 & Gtr 2

   F#                              A  G#  B-G#
eb|-------------------------------|-------------------------|
Bb|-------------------------------|-------------------------|
Gb|-------------------------------|--------4----------------|
Db|-44444444----------------------|-7--6---4-6--------------|
Ab|-44444444----------------------|-7--6---2-6--------------|
Eb|-22222222----------------------|-5--4-----4--------------|
   Sa isang mahabang panaginip     'di na hihinto
   D                               Eb
eb|-------------------------------|-------------------------|
Bb|-------------------------------|-------------------------|
Gb|-77777777----------------------|-88888888----------------|
Db|-77777777----------------------|-88888888----------------|
Ab|-55555555----------------------|-66666666----------------|
Eb|-------------------------------|-------------------------|
   ..............................  Wooh-ohh

CHORUS

Gtr 1

   E               G#m             F#m             A
eb|-----------------------------------------------------------------|
Bb|-----------------------------------------------------------------|
Gb|-----------------------------------------------------------------|
Db|-2-2-2-2-2-2-2-2-6-6-6-6-6-6-6-6-4-4-4-4-4-4-4-4-7-7-7-7-7-7-7-7-|
Ab|-2-2-2-2-2-2-2-2-6-6-6-6-6-6-6-6-4-4-4-4-4-4-4-4-7-7-7-7-7-7-7-7-|
Eb|-0-0-0-0-0-0-0-0-4-4-4-4-4-4-4-4-2-2-2-2-2-2-2-2-5-5-5-5-5-5-5-5-|


 Wag kang bibitiw bigla,
 wag kang bibitiw bigla,
 higpitan lang ang iyong kapit
 maglalayag patungong langit!
INTERLUDE

Gtr 3

Gb|-----------------------------------|
Db|-----------------------------------| 2x
Ab|-----------------------------------|
Eb|-9-9-9-7-7-7-7-7-4-4-4-2-2-2-2-2---|

ROGEM- > pagdating ng 2nd round play nyo 2
Gtr 2

eb|-4-~~~~~~~~~~~~~~~~~~~~~~~~--------|
Bb|-5-~~~~~~~~~~~~~~~~~~~~~~~~--------|
Gb|-6-~~~~~~~let ring~~~~~~~~~--------|
Db|-6-~~~~~~~~~~~~~~~~~~~~~~~~--------|
Ab|-4-~~~~~~~~~~~~~~~~~~~~~~~~--------|
Eb|-----------------------------------|

VERSE II

   C#m     G#m   B
eb|-----------------------------------|
Bb|-----------------------------------|
Gb|-66--------------------------------|
Db|-66------66----99------------------|
Ab|-44------66----99------------------|
Eb|---------44----77------------------|
    Teka, kaya ba natin to

eb|-----------------------------------|
Bb|-----------------------------------|
Gb|-66--------------------------------|
Db|-66------66----99------------------|
Ab|-44------66----99------------------|
Eb|---------44----77------------------|
    Kung hindi nay aakayin kat itatayo

eb|-----------------------------------|
Bb|-----------------------------------|
Gb|-66--------------------------------|
Db|-66------66----99------------------|
Ab|-44------66----99------------------|
Eb|---------44----77------------------|
    Yun yon
    Kaya hanggang ngayoy

   A
eb|----------------------------------|
Bb|----------------------------------|
Gb|----------------------------------|
Db|-7777777777777777-----------------|
Ab|-7777777777777777-----------------|
Eb|-5555555555555555-----------------|
  tuloy tuloy tuloy tuloy wag kang


CHORUS

   E 	           G#m             F#m             A
eb|-----------------------------------------------------------------|
Bb|-----------------------------------------------------------------|
Gb|-----------------------------------------------------------------|
Db|-2-2-2-2-2-2-2-2-6-6-6-6-6-6-6-6-4-4-4-4-4-4-4-4-7-7-7-7-7-7-7-7-|2x
Ab|-2-2-2-2-2-2-2-2-6-6-6-6-6-6-6-6-4-4-4-4-4-4-4-4-7-7-7-7-7-7-7-7-|
Eb|-0-0-0-0-0-0-0-0-4-4-4-4-4-4-4-4-2-2-2-2-2-2-2-2-5-5-5-5-5-5-5-5-|

 Wag kang bibitiw bigla,
 wag kang bibitiw bigla,
 higpitan lang ang iyong kapit
 maglalayag patungong langit!

 wag kang bibitiw bigla,
 pikit ang iyong mga mata!
 higpitan lang ang iyong kapit
 maglalayag patungong langit!

INTERLUDE

GTR 3

Gb|---------------------------------------|
Db|---------------------------------------|6x 2 pero sa 3rd round
Ab|-4-4-4-2--4-------6-6------------------|dun na papasok ung lead
Eb|-----------4---2-----------------------|

GTR 2 lead

eb|--------------------------------------------------|
Bb|-9-10-9s7-9-7-5-7-5s4-5-4s2-----------------------|
Gb|----------------------------4-5s6--4----4----4----|
Db|-------------------------------------6-----6----6-|
Ab|--------------------------------------------------|
Eb|--------------------------------------------------|

ROGEM - > d2 magkakasabay ung tatlong guitar ha

GTR 1
eb|--------------------------------------------------|
Bb|--------------------------------------------------|
Gb|--666-4--6-------8--8-----------------------------| 2x
Db|--666-4--6--6--4-8--8-----------------------------|
Ab|--444-2--4--6--4-6--6-----------------------------|
Eb|------------4--2----------------------------------|
GTR 2
eb|--------------------------------------------------|
Bb|--------------------------------------------------|
Gb|---------4-4----4-4--4h6--------------------------| 2x
Db|-------6--6----6-6--------------------------------|
Ab|--444---------------------------------------------|
Eb|--------------------------------------------------|


GTR 1
eb|--------------------------------------------------|
Bb|--------------------------------------------------|
Gb|--------------------------------------------------|
Db|-4-4-4-4-4-4-4-4-7-7-7-7-7-7-7-7------------------|
Ab|-4-4-4-4-4-4-4-4-7-7-7-7-7-7-7-7------------------|
Eb|-2-2-2-2-2-2-2-2-5-5-5-5-5-5-5-5------------------|
GTR 2
eb|-----------------------------------------------12-|
Bb|-------------------5-5-7-7-/9-7-9s10-9-10---------|
Gb|-----------4---4s6--------------------------------|
Db|-/4----------6------------------------------------|
Ab|--------------------------------------------------|
Eb|--------------------------------------------------|

BRIDGE
ROGEM - ung part na 2 may picking madali lang makuha to
        need mo lang ng alternate picking!

GTR 1
eb|--------------------------------------------------|
Bb|--------------------------------------------------|
Gb|--666666------------------------------------------|3x
Db|--666666-----------------6----------9-------------|
Ab|--444444-----------------6----------9-------------|
Eb|-------------------------4----------7-------------|
GTR 2
eb|-12,12,12,12,12,12,12,12,12,12,12,12--11,11,11,11-|
Bb|--------------------------------------------------|
Gb|--------------------------------------------------|

   Ating tinig
   Ating himig
   Abot langit


      F#m            A
eb|--------------------------------------------------|
Bb|-----------------------------------X--------------|
Gb|-----------------------------------x--------------|
Db|---4-4-4-4-4-4-4-4-7-7-7-7-7-7-7---x--------------|
Ab|---4-4-4-4-4-4-4-4-7-7-7-7-7-7-7---x--------------|
Eb|---2-2-2-2-2-2-2-2-5-5-5-5-5-5-5---x--------------|

    heto na tayo
    heto na tayo!
    Wag kang

CHORUS


   E        G#m             F#m             A
eb|-----------------------------------------------------------------|
Bb|-----------------------------------------------------------------|
Gb|-----------------------------------------------------------------|
Db|-2-2-2-2-2-2-2-2-6-6-6-6-6-6-6-6-4-4-4-4-4-4-4-4-7-7-7-7-7-7-7-7-|2x
Ab|-2-2-2-2-2-2-2-2-6-6-6-6-6-6-6-6-4-4-4-4-4-4-4-4-7-7-7-7-7-7-7-7-|
Eb|-0-0-0-0-0-0-0-0-4-4-4-4-4-4-4-4-2-2-2-2-2-2-2-2-5-5-5-5-5-5-5-5-|

  Wag kang bibitiw bigla,
  wag kang bibitiw bigla,
  higpitan lang ang iyong kapit
  maglalayag patungong langit!

  wag kang bibitiw bigla,
  pikit ang iyong mga mata!
  higpitan lang ang iyong kapit
  maglalayag patungong langit!


   E               G#m             F#m             A
eb|-----------------------------------------------------------------|
Bb|-----------------------------------------------------------------|
Gb|-9-9-9-9-9-9-9-9-------------------------------------------------|
Db|-9-9-9-9-9-9-9-9-6-6-6-6-6-6-6-6-4-4-4-4-4-4-4-4-7-7-7-7-7-7-7-7-|2x
Ab|-7-7-7-7-7-7-7-7-6-6-6-6-6-6-6-6-4-4-4-4-4-4-4-4-7-7-7-7-7-7-7-7-|
Eb|-----------------4-4-4-4-4-4-4-4-2-2-2-2-2-2-2-2-5-5-5-5-5-5-5-5-|
   langit     woah hohohoho merry christmas
    eto na tayo heto na tayo

eb|--------------------------|
Bb|--------------------------|
Gb|--------------------------|
Db|-44-x-4-x-4-2-4-x-4-2-4/7-|
Ab|-44-x-4-x-4-2-4-x-4-2-4/7-|
Eb|-22-0-2-x-2-0-2-x-2-0-2/5-|

eb|--------------------------|
Bb|--------------------------|
Gb|--9-----------------------|
Db|--9-----------------------|
Ab|--7-----------------------|
Eb|--------------------------|

|==========================================================================|
|==========================================================================|
|==========================================================================|

|==================================================|
|==================================================|
|						   |
|                     TULIRO                       |
|						   |
|==================================================|
|==================================================|

INTRO

GTR I
    G          Bm           C        Cm
eb|-3-3-3-3--|-2-2-2-2--|-3-3-3-3-|-3--3----|
Bb|-3-3-3-3--|-3-3-3-3--|-5-5-5-5-|-4---4-4-|
Gb|-4-4-4-4--|-4-4-4-4--|-5-5-5-5-|-5-5--5--|
Db|----------|----------|---------|---------|
Ab|----------|----------|---------|---------|
Eb|----------|----------|---------|---------|

GTR II
eb|----------|----------|-----8---|-----8---|
Bb|----------|----------|-8-8----8|-8--8-8--|
Gb|----------|----------|-9-------|-8-------|
Db|----------|----------|---------|---------|
Ab|----------|----------|---------|---------|
Eb|----------|----------|---------|---------|


VERSE

GTR I
   G          Bm       C        Cm
eb|----------|----------|---------|-3--3----|
Bb|-3-3-3-3--|-3-3-3-3--|-5-5-5-5-|-4---4-4-|
Gb|-4-4-4-4--|-4-4-4-4--|-5-5-5-5-|-5-5--5--|
Db|-5-5-5-5--|-4-4-4-4--|-5-5-5-5-|-5-------|2x
Ab|-5-5-5-5--|-2-2-2-2--|-3-3-3-3-|---------|
Eb|----------|----------|---------|---------|

GTR II
eb|-7--7-----|-7---7-7--|-8---8---|-8---8---|
Bb|-8----8---|-7-----7--|-8----8--|-8-------|
Gb|-7-7------|-7-7------|-9-9-----|-8-8---8-|2x
Db|----------|----------|---------|---------|
Ab|----------|----------|---------|---------|
Eb|----------|----------|---------|---------|

Labis  akoy nahuhumaling
sabik sa bawat sandaling ikay makapiling
Giliw hayaang lumapit
Huwag mo sanang ipagkait
Ang malas ng langit


CHORUS

ROGEM -> ung d2 sa chorus pakingan nyo sa adudio para malaman
	 nyo ung timing ng GTR II maririnig nyo kasabay un ng
         Drum

GTR I
         G      Bm       C          Am
eb|--------------------------------------|
Bb|--x---3-3-x---3--------5-5-5------1-1-|
Gb|--x---4-4-x---4--------5-5-5------2-2-|
Db|--x---5-5-x---4--------5-5-5------2-2-|
Ab|--x---5-5-x---2--------3-3-3------0-0-|
Eb|--------------------------------------|
Anong na      darama tuwing nakikita kang


GTR I
         G      Bm       C          Am
eb|--------------------------------------|
Bb|--x---3-3-x---3--------5-5-5------1-1-|
Gb|--x---4-4-x---4--------5-5-5------2-2-|
Db|--x---5-5-x---4--------5-5-5------2-2-|
Ab|--x---5-5-x---2--------3-3-3------0-0-|
Eb|--------------------------------------|
GTR II
eb|-10(12x)-------11(12x)-----12(24x)-----|
Bb|---------------------------------------|
Gb|---------------------------------------|
Db|---------------------------------------|
Ab|---------------------------------------|
Eb|---------------------------------------|
dumarating     tuliro di malaman anong gagawin at

GTR I
eb|---------|---------|---------|---------|
Bb|---------|---------|---------|---------|
Gb|---------|-7-7-7-7-|-9-9-9-9-|8-8-8-8--|
Db|-5-5-5-5-|-7-7-7-7-|-9-9-9-9-|8-8-8-8--|
Ab|-5-5-5-5-|-5-5-5-5-|-7-7-7-7-|6-6-6-6--|
Eb|-3-3-3-3-|---------|---------|---------|
   GTR II
eb|-10(12x)-|-11(12x)-|-12(12x)-|-11(12x)-|
Bb|---------|---------|---------|---------|gumamit kyo ng
Gb|---------|---------|---------|---------|alternate picking
eb|---------|---------|---------|---------|mabilis dapat
Bb|---------|---------|---------|---------|
Gb|---------|---------|---------|---------|
   Walang sinumang makapipigil sa akin

GTR I
eb|---------|---------|---------|-----------|
Bb|---------|---------|---------|-----------|
Gb|---------|-7-7-7-7-|-9-9-9-9-|10-10-10-10|
Db|-5-5-5-5-|-7-7-7-7-|-9-9-9-9-|10-10-10-10|
Ab|-5-5-5-5-|-5-5-5-5-|-7-7-7-7-|8--8--8--8-|
Eb|-3-3-3-3-|---------|---------|-----------|
   GTR II
eb|-10(12x)-|-11(12x)-|-12(12x)-|-11(12x)-|
Bb|---------|---------|---------|---------|gumamit kyo ng
Gb|---------|---------|---------|---------|alternate picking
eb|---------|---------|---------|---------|mabilis dapat
Bb|---------|---------|---------|---------|
Gb|---------|---------|---------|---------|
At wala nang ibang makapagbabago ng aking

GTR I
eb|---------3----3--------------------|
Bb|-5--5----4------4---4--------------|
Gb|-5--5----5--5-----5----------------|
Db|-5--5----5-------------------------|
Ab|-3--3------------------------------|
Eb|-----------------------------------|
   isip, sayo...
GTR II
eb|-----------------------------------|
Bb|-13(x24)---------------------------|
Gb|-----------------------------------|
eb|-----------------------------------|
Bb|-----------------------------------|
Gb|-----------------------------------|


VERSE II
ROGEM - > tag isang strum lang sa GTR I ung GTR II
	  Pakinggan nyo nalang as audio ung ryt timing
	  ha

GTR I
   G          Bm       C        Cm
eb|----------|----------|---------|-x---3---|
Bb|-3--------|-3--------|-5-------|-4----4-4|
Gb|-4--let---|-4--let---|-5--let--|-5-5---5-|
Db|-5--ring--|-4--ring--|-5--ring-|-5-------|
Ab|-5--------|-2--------|-3-------|---------|
Eb|----------|----------|---------|---------|
GTR II
eb|------------------------------------------------------------------------------|
Bb|12-12-12-11-11-11--10-10-10-9-99-8-88-7-77-6-66-5-55-4-44-3-33-2-22-1-11-0-0--|
Gb|------------------------------------------------------------------------------|
eb|------------------------------------------------------------------------------|
Bb|------------------------------------------------------------------------------|
Gb|------------------------------------------------------------------------------|
   Wari di ko na malimot
   Mga galaw at kilos mo
   Sa aking pagtulog


GTR I
   G          Bm          C        Cm
eb|----------|----------|----------|-3--3-----|
Bb|-3-3-3-3--|-3-3-3-3--|-5-5-5-5--|-4---4-4--|
Gb|-4-4-4-4--|-4-4-4-4--|-5-5-5-5--|-5-5--5---|
Db|-5-5-5-5--|-4-4-4-4--|-5-5-5-5--|-5--------|
Ab|-5-5-5-5--|-2-2-2-2--|-3-3-3-3--|----------|
Eb|----------|----------|----------|----------|
GTR II
eb|33333-5-33|22222-5-33|33333-5-33|33333-5-33|
Bb|33333-3-33|33333-3-33|55555-5-55|44444-4-44|
Gb|44444-4-44|44444-x-44|55555-x-55|55555---55|
Db|----------|----------|----------|----------|
Ab|----------|----------|----------|----------|
Eb|----------|----------|----------|----------|
   At sa panaginip
   Ikay mamalagi
   Di na muling malulumbay
   Sa aking paggising


CHORUS
GTR I
         G      Bm       C          Am
eb|--------------------------------------|
Bb|--x---3-3-x---3--------5-5-5------1-1-|
Gb|--x---4-4-x---4--------5-5-5------2-2-|
Db|--x---5-5-x---4--------5-5-5------2-2-|
Ab|--x---5-5-x---2--------3-3-3------0-0-|
Eb|--------------------------------------|
GTR II
eb|-----12-10----------------------------|
Bb|-----10--8----------------------------|
Gb|--------------------------------------|
Db|--------------------------------------|
Ab|--------------------------------------|
Eb|--------------------------------------|
Anong na      darama tuwing nakikita kang

GTR I
         G      Bm       C          Am
eb|--------------------------------------|
Bb|--x---3-3-x---3--------5-5-5------1-1-|
Gb|--x---4-4-x---4--------5-5-5------2-2-|
Db|--x---5-5-x---4--------5-5-5------2-2-|
Ab|--x---5-5-x---2--------3-3-3------0-0-|
Eb|--------------------------------------|
dumarating tuliro di malaman anong gagawin at


GTR I
eb|---------|---------|---------|---------|
Bb|---------|---------|---------|---------|
Gb|---------|-7-7-7-7-|-9-9-9-9-|8-8-8-8--|
Db|-5-5-5-5-|-7-7-7-7-|-9-9-9-9-|8-8-8-8--|
Ab|-5-5-5-5-|-5-5-5-5-|-7-7-7-7-|6-6-6-6--|
Eb|-3-3-3-3-|---------|---------|---------|
   Walang sinumang makapipigil sa akin

GTR I
eb|---------|---------|---------|-----------|
Bb|---------|---------|---------|-----------|
Gb|---------|-7-7-7-7-|-9-9-9-9-|10-10-10-10|
Db|-5-5-5-5-|-7-7-7-7-|-9-9-9-9-|10-10-10-10|
Ab|-5-5-5-5-|-5-5-5-5-|-7-7-7-7-|8--8--8--8-|
Eb|-3-3-3-3-|---------|---------|-----------|
   At wala nang ibang makapagbabago ng aking

eb|-----------------------------------|
Bb|-5--5----4-------------------------|
Gb|-5--5----5-------------------------|
Db|-5--5----5-------------------------|
Ab|-3--3----3-------------------------|
Eb|-----------------------------------|
   isip  sayo ohhh!!!!! ulol


GTR I
           G      Bm
eb|-------------------------|
Bb|--x----3-3--x--2---------|
Gb|--x----4-4--x--4---------|
Db|--x----5-5--x--4---------|
Ab|--x----5-5--x--2---------|
Eb|-------------------------|
GTR II
eb|--------------10---------|
Bb|--------------10---------|
Gb|--------------x----------|
Db|--------------9----------|
Ab|-------------------------|
Eb|-------------------------|
   Anong na   darama

SOLO

ROGEM -pataas ung bend sa (16b,15b,14b)
      -ung (16x,17x) may palm mute un medyo mabilis dun ha

GTR I
         G        Bm       C          Am
eb|------------------------------------------|
Bb|-----3-3-3----3-3-3------5-5-5------1-1-1-|
Gb|-----4-4-4----4-4-4------5-5-5------2-2-2-|
Db|-----5-5-5----4-4-4------5-5-5------2-2-2-|
Ab|-----5-5-5----2-2-2------3-3-3------0-0-0-|
Eb|------------------------------------------|
GTR II
eb|------10-10-10-10s12-10------------16b----15-14-12-14-15-17-17-19-17p15-15|
Bb|12-13-------------------13-12------15b---17x------------------------------|
Gb|-------------------------------12~-14b-16x--------------------------------|
Db|--------------------------------------------------------------------------|
Ab|--------------------------------------------------------------------------|
Eb|--------------------------------------------------------------------------|

GTR I
         G      Bm       C          Am
eb|-------------------------------------|
Bb|------3-3----3--------5-5-5------1-1-|
Gb|------4-4----4--------5-5-5------2-2-|
Db|------5-5----4--------5-5-5------2-2-|
Ab|------5-5----2--------3-3-3------0-0-|
Eb|-------------------------------------|
GTR II
eb|----------------14s15-15p14------14s15-17-17-18b-17-15-18b-17-15----------|
Bb|-------15-17-15------------15-17---------------------------15-------------|
Gb|-14s16--------------------------------------------------------------------|
Db|--------------------------------------------------------------------------|
Ab|--------------------------------------------------------------------------|
Eb|--------------------------------------------------------------------------|

CHORUS

           G      Bm        C         Am
eb|--------------------------------------------|
Bb|--------3------3-3-------5-5-5-----1-1-1----|
Gb|--------4------4-4-------5-5-5-----2-2-2----|
Db|--------5------4-4-------5-5-5-----2-2-2----|
Ab|--------5------2-2-------3-3-3-----0-0-0----|
Eb|--------------------------------------------|
   Anong nadarama tuwing nakikita kang
   dumarating  tuliro di malaman anong gagawin at

GTR I
eb|---------|---------|---------|---------|
Bb|---------|---------|---------|---------|
Gb|---------|-7-7-7-7-|-9-9-9-9-|8-8-8-8--|
Db|-5-5-5-5-|-7-7-7-7-|-9-9-9-9-|8-8-8-8--|
Ab|-5-5-5-5-|-5-5-5-5-|-7-7-7-7-|6-6-6-6--|
Eb|-3-3-3-3-|---------|---------|---------|
   Walang sinumang makapipigil sa akin

GTR I
eb|---------|---------|---------|-----------|
Bb|---------|---------|---------|-----------|
Gb|---------|-7-7-7-7-|-9-9-9-9-|10-10-10-10|
Db|-5-5-5-5-|-7-7-7-7-|-9-9-9-9-|10-10-10-10|
Ab|-5-5-5-5-|-5-5-5-5-|-7-7-7-7-|8--8--8--8-|
Eb|-3-3-3-3-|---------|---------|-----------|
At wala nang ibang makapagbabago ng aking


eb|-----------------------------------|
Bb|-5--5----44444444------------------|
Gb|-5--5----55555555------------------|
Db|-5--5----55555555------------------|
Ab|-3--3----33333333------------------|
Eb|-----------------------------------|
   isip  sayo

GTR I
         G      Bm       C          Am
eb|--------------------------------------|
Bb|--x---3-3-x---3--------5-5-5------1-1-|
Gb|--x---4-4-x---4--------5-5-5------2-2-|
Db|--x---5-5-x---4--------5-5-5------2-2-|
Ab|--x---5-5-x---2--------3-3-3------0-0-|
Eb|--------------------------------------|
   Anong na--darama ngayon at nandirito ka
   saking tabi  tuliro di malaman anong gagawin at

GTR I
eb|---------|---------|---------|---------|
Bb|---------|---------|---------|---------|
Gb|---------|-7-7-7-7-|-9-9-9-9-|8-8-8-8--|
Db|-5-5-5-5-|-7-7-7-7-|-9-9-9-9-|8-8-8-8--|
Ab|-5-5-5-5-|-5-5-5-5-|-7-7-7-7-|6-6-6-6--|
Eb|-3-3-3-3-|---------|---------|---------|
   Walang sinumang makapipigil sa akin
GTR I
eb|---------|---------|---------|-----------|
Bb|---------|---------|---------|-----------|
Gb|---------|-7-7-7-7-|-9-9-9-9-|10-10-10-10|
Db|-5-5-5-5-|-7-7-7-7-|-9-9-9-9-|10-10-10-10|
Ab|-5-5-5-5-|-5-5-5-5-|-7-7-7-7-|8--8--8--8-|
Eb|-3-3-3-3-|---------|---------|-----------|
   At wala nang ibang makapagbabago ng aking

            Cm
eb|--------------x---------------------|
Bb|-5--5----4----x---------------------|
Gb|-5--5----5----x---------------------|
Db|-5--5----5----x---------------------|
Ab|-3--3----3----x---------------------|
Eb|--------------x---------------------|
   isip, sayo.

ROGEM - pahina lang ng pahina di2

GTR I
    G        Bm       C        Cm
eb|------------------------------------|
Bb|-3-3-3-3--3-3-3-3--5-5-5-5--4-4-4-4-|
Gb|-4-4-4-4--4-4-4-4--5-5-5-5--5-5-5-5-|
Db|-5-5-5-5--4-4-4-4--5-5-5-5--5-5-5-5-|
Ab|-5-5-5-5--2-2-2-2--3-3-3-3--3-3-3-3-|
Eb|------------------------------------|

|==========================================================================|
|==========================================================================|
|==========================================================================|

|==================================================|
|==================================================|
|						   |
|                     MOVIE                        |
|						   |
|==================================================|
|==================================================|


CHORDS

E      = x79900
EM7/Eb = x69800
C#m    = x46654
A      = x02220
B      = x24442
G#m    = 466444


VERSE I

E
The movie?s done once more
E
The mood sets in with lights
E                           EM7/Eb
Let?s wait for them to leave
                           E
I was never one for crowds


        E                        A
eb|-----0-0-0-0-0-0-0-0----------0-0-0-0-0-0-0-0-----------|
Bb|-----0-0-0-0-0-0-0-0----------2-2-2-2-2-2-2-2-----------|
Gb|-----9-9-9-9-9-9-9-9----------2-2-2-2-2-2-2-2-----------|
Db|-----9-9-9-9-9-9-9-9----------2-2-2-2-2-2-2-2-----------|
Ab|-----7-7-7-7-7-7-7-7----------0-0-0-0-0-0-0-0-----------|
Eb|-----x-x-x-x-x-x-x-x----------x-x-x-x-x-x-x-x-----------|
	I look down on the floor
        E                                            A
eb|-----0-0-0-0-0-0-0-0-0-0-0-0-0-0---------0-0-0-0-0-0-0-0|
Bb|-----0-0-0-0-0-0-0-0-0-0-0-0-0-0---------2-2-2-2-2-2-2-2|
Gb|-----9-9-9-9-9-9-9-9-9-9-9-9-9-9---------2-2-2-2-2-2-2-2|
Db|-----9-9-9-9-9-9-9-9-9-9-9-9-9-9---------2-2-2-2-2-2-2-2|
Ab|-----7-7-7-7-7-7-7-7-7-7-7-7-7-7---------0-0-0-0-0-0-0-0|
Eb|-----x-x-x-x-x-x-x-x-x-x-x-x-x-x---------x-x-x-x-x-x-x-x|
	Everything?s undone Yet we?ve been so much more
                           E
	han a full length feature

Interlude
    E 		EM7/Eb     A 		C#m-B
eb|---0-0-0-0-0-0-0-0-0-0--0-0-0-0-0---4-4--2-2-|
Bb|---0-0-0-0-0-0-0-0-0-0--2-2-2-2-2---5-5--4-4-|
Gb|---9-9-9-9-9-8-8-8-8-8--2-2-2-2-2---6-6--4-4-|
Db|---9-9-9-9-9-9-9-9-9-9--2-2-2-2-2---6-6--4-4-|
Ab|---7-7-7-7-7-6-6-6-6-6--0-0-0-0-0---4-4--2-2-|
Eb|------------------------------------x-x--x-x-|


    G#m                 	   A
eb|--44444444----------------------00000000--------|
Bb|--44444444----------------------22222222--------|
Gb|--44444444----------------------22222222--------|
Db|--66666666----------------------22222222--------|
Ab|--66666666----------------------0000000---------|
Eb|--44444444--------------------------------------|
  We long for escape    Let this memory take shape

    E                    EM7/Eb
eb|--0000000---------------00000000----------------|
Bb|--0000000---------------00000000----------------|
Gb|--9999999---------------88888888----------------|
Db|--9999999---------------99999999----------------|
Ab|--7777777---------------66666666----------------|
Eb|------------------------------------------------|
   For the heroes we often see

    G#m                 	   A
eb|--44444444----------------------00000000--------|
Bb|--44444444----------------------22222222--------|
Gb|--44444444----------------------22222222--------|
Db|--66666666----------------------22222222--------|
Ab|--66666666----------------------00000000--------|
Eb|--44444444--------------------------------------|
I don?t know if it?s me    Or the movies we?ve seen

    E                    EM7/Eb
eb|--0000000---------------00000000----------------|
Bb|--0000000---------------00000000----------------|
Gb|--9999999---------------88888888----------------|
Db|--9999999---------------99999999----------------|
Ab|--7777777---------------66666666----------------|
Eb|------------------------------------------------|
I don?t remember As well as i should

CHORUS

GTR I
    E 		  EM7/Eb       A 		C#m-B
eb|--0-0-0-0-0----0-0-0-0-0----0-0-0-0-0--------4-4--2-2-|
Bb|--0-0-0-0-0----0-0-0-0-0----2-2-2-2-2--------5-5--4-4-|
Gb|--9-9-9-9-9----8-8-8-8-8----2-2-2-2-2--------6-6--4-4-|2x
Db|--9-9-9-9-9----9-9-9-9-9----2-2-2-2-2--------6-6--4-4-|
Ab|--7-7-7-7-7----6-6-6-6-6----0-0-0-0-0--------4-4--2-2-|
Eb|---------------------------------------------x-x--x-x-|
GTR II
eb|------------7------------7-------------7-------------7|
Bb|----7-9-10-------7-9-10--------7-9-10----------7-9-10-|
Gb|--9------------8-------------9---------------6--------|
Db|------------------------------------------------------|
Ab|------------------------------------------------------|
Eb|------------------------------------------------------|
I stay so silent with your arms adjacent
And credits may soon roll away

INTERLUDE
GTR I
   E 	A 	E 	EM7/Eb
eb|-0----0-------0--------0-----------------------------|
Bb|-0----2-------0--------0-----------------------------|
Gb|-9----2-------9--------8-----------------------------|
Db|-9----2-------9--------9-----------------------------|
Ab|-7----0-------7--------6-----------------------------|
Eb|-----------------------------------------------------|

VERSE II
    G#m                 	   A
eb|--44444444----------------------00000000--------|
Bb|--44444444----------------------22222222--------|
Gb|--44444444----------------------22222222--------|
Db|--66666666----------------------22222222--------|
Ab|--66666666----------------------0000000---------|
Eb|--44444444--------------------------------------|
GTR II
eb|-4---5--------------------------5--5------------|
Bb|--4---4--------------------------6--6-----------|
Gb|---4---4--------------------------7--7----------|
Db|------------------------------------------------|
Ab|------------------------------------------------|
Eb|------------------------------------------------|
You have my jacket on

GTR I
    E                    EM7/Eb
eb|--0000000---------------00000000----------------|
Bb|--0000000---------------00000000----------------|
Gb|--9999999---------------88888888----------------|
Db|--9999999---------------99999999----------------|
Ab|--7777777---------------66666666----------------|
Eb|------------------------------------------------|
GTR II
eb|-0------0---------------0------0----------------|
Bb|--0----0-----------------0----0-----------------|
Gb|------------------------------------------------|
Db|-----9----------------------9-------------------|
Ab|----7----------------------6--------------------|
Eb|------------------------------------------------|
Comfort in my warmth ( I?m used to the cold )


    G#m                 	   A
eb|--44444444----------------------00000000--------|
Bb|--44444444----------------------22222222--------|
Gb|--44444444----------------------22222222--------|
Db|--66666666----------------------22222222--------|
Ab|--66666666----------------------0000000---------|
Eb|--44444444--------------------------------------|
And i hope you?d agree How this story should be

    E                    EM7/Eb
eb|--0000000---------------00000000----------------|
Bb|--0000000---------------00000000----------------|
Gb|--9999999---------------88888888----------------|
Db|--9999999---------------99999999----------------|
Ab|--7777777---------------66666666----------------|
Eb|------------------------------------------------|
How i wish i could change the scenes

GTR I
    G#m                 	   A
eb|--44444444----------------------00000000--------|
Bb|--44444444----------------------22222222--------|
Gb|--44444444----------------------22222222--------|
Db|--66666666----------------------22222222--------|
Ab|--66666666----------------------0000000---------|
Eb|--44444444--------------------------------------|
GTR II
eb|------------7---------------------------7-------|
Bb|----7-9-10-----------------------7-9-10---------|
Gb|--9-----------------------------8---------------|
Db|------------------------------------------------|
Ab|------------------------------------------------|
Eb|------------------------------------------------|
I?d write on the next page An early coming of age

GTR I
    E                    EM7/Eb
eb|--0000000---------------00000000----------------|
Bb|--0000000---------------00000000----------------|
Gb|--9999999---------------88888888----------------|
Db|--9999999---------------99999999----------------|
Ab|--7777777---------------66666666----------------|
Eb|------------------------------------------------|
GTR II
eb|------7s9-7---------------------7---------------|
Bb|--7-9--------------------7-9-10-----------------|
Gb|-9---------------------8------------------------|
Db|------------------------------------------------|
Ab|------------------------------------------------|
Eb|------------------------------------------------|
For me to tell you As well as i could

Chorus
GTR I
    E 		  EM7/Eb       A 		C#m-B
eb|--0-0-0-0-0----0-0-0-0-0----0-0-0-0-0--------4-4--2-2-|
Bb|--0-0-0-0-0----0-0-0-0-0----2-2-2-2-2--------5-5--4-4-|
Gb|--9-9-9-9-9----8-8-8-8-8----2-2-2-2-2--------6-6--4-4-|2x
Db|--9-9-9-9-9----9-9-9-9-9----2-2-2-2-2--------6-6--4-4-|
Ab|--7-7-7-7-7----6-6-6-6-6----0-0-0-0-0--------4-4--2-2-|
Eb|---------------------------------------------x-x--x-x-|
GTR II
eb|------------7------------7-------------7-------------7|
Bb|----7-9-10-------7-9-10--------7-9-10----------7-9-10-|
Gb|--9------------8-------------9---------------6--------|
Db|------------------------------------------------------|
Ab|------------------------------------------------------|
Eb|------------------------------------------------------|
I stay so silent with your arms adjacent
And credits may soon roll away


    E 		  EM7/Eb       A 		C#m-B
eb|--0-0-0-0-0----0-0-0-0-0----0-0-0-0-0--------4-4--2-2-|
Bb|--0-0-0-0-0----0-0-0-0-0----2-2-2-2-2--------5-5--4-4-|
Gb|--9-9-9-9-9----8-8-8-8-8----2-2-2-2-2--------6-6--4-4-|2x
Db|--9-9-9-9-9----9-9-9-9-9----2-2-2-2-2--------6-6--4-4-|
Ab|--7-7-7-7-7----6-6-6-6-6----0-0-0-0-0--------4-4--2-2-|
Eb|---------------------------------------------x-x--x-x-|
Could I stay so silent with your arms adjacent
The vagueness may soon come to light
Should

    E 		  EM7/Eb       A 		C#m-B
eb|--0-0-0-0-0----0-0-0-0-0----0-0-0-0-0--------4-4--2-2-|
Bb|--0-0-0-0-0----0-0-0-0-0----2-2-2-2-2--------5-5--4-4-|
Gb|--9-9-9-9-9----8-8-8-8-8----2-2-2-2-2--------6-6--4-4-|2x
Db|--9-9-9-9-9----9-9-9-9-9----2-2-2-2-2--------6-6--4-4-|
Ab|--7-7-7-7-7----6-6-6-6-6----0-0-0-0-0--------4-4--2-2-|
Eb|---------------------------------------------x-x--x-x-|
GTR II
ROGEM - > e2ng lead na 2 gawin nyo 2 continues hangang
          matapos ung song
eb|-------7----------------------------------------------|
Bb|---7h9------------------------------------------------|
Gb|-9----------------------------------------------------|
Db|------------------------------------------------------|
Ab|------------------------------------------------------|
Eb|------------------------------------------------------|
I stay so silent with your arms adjacent
As i play my part in our show

( DO SAME CHORDS )

Forever shall i be the ill-fated type
Forever must i be the one you confide to
Forever must i be the pages you need
For you to write all the secrets that
You hope i would keep
Forever must i drive you home late at night
After watching these films that seem to imitate life
Forever must i be the opinion you seek
Forever will i be the friend that you would keep

E EM7/Eb A Continue lang ung stram last chord A


|==========================================================================|
|==========================================================================|
|==========================================================================|

|==================================================|
|==================================================|
|						   |
|                 THE WANDERING                    |
|						   |
|==================================================|
|==================================================|


INTRO
    E           c          E            D
eb|-----------|----------|------------|----------|
Bb|-----------|----------|------------|----------|
Gb|-999999999-|-55555555-|-999999999--|-777777---|
Db|-999999999-|-55555555-|-999999999--|-777777---|
Ab|-777777777-|-33333333-|-777777777--|-555555---|
Eb|-----------|----------|------------|----------|

ROGEM - > 1 strum po i2 ha pakingan nyo sa cd pero
	  qng gusto nyo continues strum kyo bahala

VERSE
   C                                                Am
eb|--------------------------------------------------------------|
Bb|--------------------------------------------------------------|
Gb|-5------------------------------------------------------------|
Db|-5------------------------------------------------7-----------|
Ab|-3------------------------------------------------7-----------|
Eb|--------------------------------------------------5-----------|
Kate is a little restless as she wipes her brow and for a second
                 E                    D
eb|--------------------------------------------------------------|
Bb|--------------------------------------------------------------|
Gb|---------------7--------------------7-------------------------|
Db|---------------7--------------------7-------------------------|
Ab|---------------9--------------------5-------------------------|
Eb|--------------------------------------------------------------|
She hesitates to move     Its all to soon...


    C                                                Am
eb|--------------------------------------------------------------|
Bb|--------------------------------------------------------------|
Gb|-5------------------------------------------------------------|
Db|-5------------------------------------------------7-----------|
Ab|-3------------------------------------------------7-----------|
Eb|--------------------------------------------------5-----------|
I look inside and feign suspicion   Logic hand in hand with
reason swoons beneath the

		  E                    D
eb|--------------------------------------------------------------|
Bb|--------------------------------------------------------------|
Gb|---------------7--------------------7-------------------------|
Db|---------------7--------------------7-------------------------|
Ab|---------------9--------------------5-------------------------|
Eb|--------------------------------------------------------------|
		truth  takes a beating


ROGEM - > ( Struming na d2 ha )

CHORUS
   F                      Am
eb|--------------------------------------------|
Bb|--------------------------------------------|
Gb|--------------------------------------------|
Db|-3-3-3-3-3-3-3----------7-7-7-7-7-7---------|2x
Ab|-3-3-3-3-3-3-3----------7-7-7-7-7-7---------|
Eb|-1-1-1-1-1-1-1----------5-5-5-5-5-5---------|
   Ohhh                  Open up from under me
   Ohhh                   Sing to me a


eb|----------------------------|
Bb|----------------------------|
Gb|----------------------------|
Db|-7-8-8--7-8-8--7-8-8--7-8-8-|
Ab|-7-8-8--7-8-8--7-8-8--7-8-8-|
Eb|-5-6-6--5-6-6--5-6-6--5-6-6-|
    remedy

eb|----------------------------|
Bb|----------------------------|
Gb|--5-77-5-77-5-77--5/7--5-7--|
Db|--5-77-5-77-5-77--5/7--5-7--|
Ab|--3-55-3-55-3-55--3/5--3-5--|
Eb|----------------------------|

   F   Em  C  B C B   Am                 F
e|------------------------------------------------------|
B|------------------------------------------------------|
G|-10--9---5--4/5\4-------------------------------------|
D|-10--9---5--4/5\4---7--7-7-7-7-7-7-7--3-3-3-3-3-3-3-3-|
A|-8---7---3--2/3\2---7--7-7-7-7-7-7-7--3-3-3-3-3-3-3-3-|
E|--------------------5--5-5-5-5-5-5-5--1-1-1-1-1-1-1-1-|
   Why cant I sever the ties with the unforgiving sky

                     Am              F                       G
eb|---------------------------------------------------------------|
Bb|---------------------------------------------------------------|
Gb|---------------------------------------------------------------|
Db|-------------------7-7-7-7-7-7----3-3-3-3-3-3------------555555|
Ab|-------------------7-7-7-7-7-7----3-3-3-3-3-3------------555555|
Eb|-------------------5-5-5-5-5-5----1-1-1-1-1-1------------333333|
The past of all my lies Vestiges of smoke cloud my view of hope
                     Am              F                C
eb|---------------------------------------------------------------|
Bb|---------------------------------------------------------------|
Gb|---------------------------------------------------5-5-5-5-5-5-|
Db|-------------------7-7-7-7-7-7----3-3-3-3-3-3------5-5-5-5-5-5-|
Ab|-------------------7-7-7-7-7-7----3-3-3-3-3-3------3-3-3-3-3-3-|
Eb|-------------------5-5-5-5-5-5----1-1-1-1-1-1------------------|
Six feet of concrete right beneath my feet And I am lost again


INTERLUDE
    E           c         E          D
eb|-----------|----------|------------|----------|
Bb|-----------|----------|------------|----------|
Gb|-999999999-|-55555555-|-999999999--|-777777---|
Db|-999999999-|-55555555-|-999999999--|-777777---|
Ab|-777777777-|-33333333-|-777777777--|-555555---|
Eb|-----------|----------|------------|----------|

VERSE II


   C                                                Am
eb|--------------------------------------------------------------|
Bb|--------------------------------------------------------------|
Gb|-5------------------------------------------------------------|
Db|-5------------------------------------------------7-----------|
Ab|-3------------------------------------------------7-----------|
Eb|--------------------------------------------------5-----------|
Kate is a little hopeless  as  she looks at me and for a second
                  E                    D
eb|--------------------------------------------------------------|
Bb|--------------------------------------------------------------|
Gb|---------------7--------------------7-------------------------|
Db|---------------7--------------------7-------------------------|
Ab|---------------9--------------------5-------------------------|
Eb|--------------------------------------------------------------|
She hesitates to move       Its all to soon

   C                                                Am
eb|--------------------------------------------------------------|
Bb|--------------------------------------------------------------|
Gb|-5------------------------------------------------------------|
Db|-5------------------------------------------------7-----------|
Ab|-3------------------------------------------------7-----------|
Eb|--------------------------------------------------5-----------|
Beneath her
facade lies another bewilders me further And I am so endlessly drawn

                  E                    D
eb|--------------------------------------------------------------|
Bb|--------------------------------------------------------------|
Gb|---------------7--------------------7-------------------------|
Db|---------------7--------------------7-------------------------|
Ab|---------------9--------------------5-------------------------|
Eb|--------------------------------------------------------------|
Endlessly drawn to the truth   Takes new meaning

CHORUS

   F                      Am
eb|--------------------------------------------|
Bb|--------------------------------------------|
Gb|--------------------------------------------|
Db|-3-3-3-3-3-3-3----------7-7-7-7-7-7---------|2x
Ab|-3-3-3-3-3-3-3----------7-7-7-7-7-7---------|
Eb|-1-1-1-1-1-1-1----------5-7-7-7-7-7---------|
   Ohhh..                Open up from under me
   Ohhh..                 Sing to me a

eb|----------------------------|
Bb|----------------------------|
Gb|----------------------------|
Db|-7-8-8--7-8-8--7-8-8--7-8-8-|
Ab|-7-8-8--7-8-8--7-8-8--7-8-8-|
Eb|-5-6-6--5-6-6--5-6-6--5-6-6-|
    remedy

eb|----------------------------|
Bb|----------------------------|
Gb|--5-77-5-77-5-77--5/7--5-7--|
Db|--5-77-5-77-5-77--5/7--5-7--|
Ab|--3-55-3-55-3-55--3/5--3-5--|
Eb|----------------------------|

   F   Em  C  B C B   Am                F
e|------------------------------------------------------|
B|------------------------------------------------------|
G|-10--9---5--4/5\4-------------------------------------|
D|-x---x---x--x/x\x---7--7-7-7-7-7-7-7--3-3-3-3-3-3-3-3-|
A|-8---7---3--2/3\2---7--7-7-7-7-7-7-7--3-3-3-3-3-3-3-3-|
E|--------------------5--5-5-5-5-5-5-5--1-1-1-1-1-1-1-1-|
   Why cant I sever the ties with the unforgiving sky

                     Am              F                       G
eb|---------------------------------------------------------------|
Bb|---------------------------------------------------------------|
Gb|---------------------------------------------------------------|
Db|-------------------7-7-7-7-7-7----3-3-3-3-3-3------------555555|
Ab|-------------------7-7-7-7-7-7----3-3-3-3-3-3------------555555|
Eb|-------------------5-5-5-5-5-5----1-1-1-1-1-1------------333333|
The past of all my lies Vestiges of smoke cloud my view of hope
                      Am              F                       G
eb|---------------------------------------------------------------|
Bb|---------------------------------------------------------------|
Gb|---------------------------------------------------------------|
Db|-------------------7-7-7-7-7-7----3-3-3-3-3-3------------555555|
Ab|-------------------7-7-7-7-7-7----3-3-3-3-3-3------------555555|
Eb|-------------------5-5-5-5-5-5----1-1-1-1-1-1------------333333|
Six feet of concrete right beneath my feet And I am lost again

eb|------------------------------|--------------------------------|
Bb|------------------------------|--------------------------------|
Gb|------------------------------|--------------------------------|
Db|-7---5x7x5x7-x7---5x7x5x7x----|--x3---2x3x2x3x-x3--2x3x2x3-----|
Ab|-7---5x7x5x7-x7---5x7x5x7x----|--x3---2x3x2x3x-x3--2x3x2x3-----|
Eb|-5---3x5x3x5-x5---3x5x3x5x----|--x1---0x1x0x1x-x1--0x1x0x1-----|


eb|------------------------------|--------------------------------|
Bb|------------------------------|--------------------------------|
Gb|------------------------------|--------------------------------|
Db|-7---5x7x5x7-x7---5x7x5x-7-7-7|--3---3-3-3-3-3-3-3-------------|
Ab|-7---5x7x5x7-x7---5x7x5x-7-7-7|--3---3-3-3-3-3-3-3-------------|
Eb|-5---3x5x3x5-x5---3x5x3x-5-5-5|--1---1-1-1-1-1-1-1-------------|

eb|----------------------------------------------------------|
Bb|----------------------------------------------------------|
Gb|/10--9-x5--4/5\4--/10--9--5--4/5\4------------------------|
Db|/x---x-xx--x/x\x--/x---x--x--x/x\x--x7----x7---x7-9-5-----|
Ab|/8---7-x3--2/3\2--/8---7--3--2/3\2--x7----x7---x7-9-5-----|
Eb|------------------------------------x5----x5---x5-7-3-----|

ROGEM - Pluck na po dto pakingan nyo sa cd maganda
	2ng part na 2 favorite ko 2ng part na 2

   G              Am             F#m             G
eb|---------------|---------------|---------------|----------------|
Bb|----0-0----0-0-|---------------|---------------|---0-0---0-0----|
Gb|---0-0----0-0--|----5-5----5-5-|----2-2----2-2-|--0-0---0-0-----|
Db|---------------|---7-7----7-7--|---4-4----4-4--|----------------|
Ab|---------------|---------------|---------------|----------------|
Eb|-3------3------|/5------5------|-2------2------|-3-----3--------|

Rogem - pluck pa rin d2 may distortion na d2
        e2 din ung gagamitin sa solo sa solo ung 17b full bend po
	un hangang sa maging atunog nya ung 19 eb- String
	pati ung 12 dapat maging kasing 2nog nya ung 14 pag nag
	full bend kayo

    C                 D                 C                 Bm
eb|---------------|---------------|----------------|---------------|
Bb|---------------|---------------|----------------|---------------|
Gb|---------------|---------------|----------------|---------------|
Db|----5-5-----5-5|----7-7-----7-7|----5-5-----5-5-|---4-4------4-4|
Ab|3--3-3--3--3-3-|-5-5-5--5--5-5-|-3-3-3---3-3-3--|2-2-2---2--2-2-|
Eb|---------------|---------------|----------------|---------------|

SOLO/ADliB
    f.b. f.b
eb|--17b-17b----------19\17----17------19~----|
Bb|-------------------------------------------|
Gb|-------------------------------------------|
Db|-------------------------------------------|
Ab|-------------------------------------------|
Eb|-------------------------------------------|
    f.b. f.b
eb|--17b-17b-------------------10------19~----|
Bb|------------------10s12--------------------|
Gb|-------------------------------------------|
Db|-------------------------------------------|
Ab|-------------------------------------------|
Eb|-------------------------------------------|

eb|-----------19-----\10-------12------14-----|
Bb|-10-8-8------------------------------------|
Gb|-------------------------------------------|
Db|-------------------------------------------|
Ab|-------------------------------------------|
Eb|-------------------------------------------|
 	     f.b.
eb|-12--18b--13b----12-10----8-7-5------------|
Bb|----------------------------------8s10-8---|
Gb|-------------------------------------------|
Db|-------------------------------------------|
Ab|-------------------------------------------|
Eb|-------------------------------------------|

   G         G/F#                Em              D
eb|--------------------------------------------------------|
Bb|--------------------------------------------------------|
Gb|-----------------------------------------------7-7-7-7--|
Db|-5-5-5-5---4-4-4-4-------------2-2-2-2---------7-7-7-7--|
Ab|-5-5-5-5---5-5-5-5-------------2-2-2-2---------5-5-5-5--|
Eb|-3-3-3-3---2-2-2-2-------------0-0-0-0------------------|
   Lower me evasive as these keep you in my dreams

   G         G/F#                Em              D
eb|--------------------------------------------------------|
Bb|--------------------------------------------------------|
Gb|-----------------------------------------------7-7-7-7--|
Db|-5-5-5-5---4-4-4-4-------------2-2-2-2---------7-7-7-7--|
Ab|-5-5-5-5---5-5-5-5-------------2-2-2-2---------5-5-5-5--|
Eb|-3-3-3-3---2-2-2-2-------------0-0-0-0------------------|
   Lower me illusive as these keep you in my dreams

ROGEM - > Continue nyo lang ung strum hangang sa matapos
	  Last Chord G

|==========================================================================|
|==========================================================================|
|==========================================================================|

|==================================================|
|==================================================|
|						   |
|                     GUNITA                       |
|						   |
|==================================================|
|==================================================|

ROGEM -> e2 ung mga riffs sasabay nyo 2 dun sa song
	 nakalagay din d2 kaylan nyo ipplay ung mga
         riffs ginawa talaga 2ng mga riffs na 2 sa
         Bb & Gb Strings kso ung iba mahi2rapan lalo
         na ung gumagamit ng nylon kya gumawa ng nasa
	 Gb and Bb na String

  RIFF I
eb|------|  |-3/10-|
Bb|-8/15-|or|-3/10-|
Gb|-7/14-|  |------|


  RIFF II
eb|------|  |-10\7-|
Bb|-15\12|or|------|
Gb|------|  |------|


  RIFF III
eb|------|  |-12\7-|
Bb|-17\12|or|------|
Gb|------|  |------|

ROGEM - > pwd nyo gamitin khit ano sa dalawang 2
	  qng san kyo comfortable

    D/F#           D/F#
eb|-222222---|  |--222222--|
Bb|-333333---|  |--333333--|
Gb|-222222---|or|--222222--|
Db|-444444---|  |--000000--|
Ab|-xxxxxx---|  |--xxxxxx--|
Eb|-xxxxxx---|  |--222222--|

INTRO


VERSE 1:
GTR I
     C           D	    Em		  Dsus/F#
eb|--0000000-----2222222----0000000-------2222222----|
Bb|--1111111-----3333333----0000000-------3333333----|
Gb|--0000000-----2222222----0000000-------2222222----|
Db|--2222222-----0000000----2222222-------4444444----|
Ab|--3333333----------------2222222-------xxxxxxx----|
Eb|-------------------------0000000-------xxxxxxx----|
GTR II
  |--RIFF I-----------------RIFF II-------RIFF I-----|

   Patuloy na pumapatak  Ang bawat sandaling natitira

GTR I
     C           D	    Em
eb|--0000000-----2222222----0000000------------------|
Bb|--1111111-----3333333----0000000------------------|
Gb|--0000000-----2222222----0000000------------------|
Db|--2222222-----0000000----2222222------------------|
Ab|--3333333----------------2222222------------------|
Eb|-------------------------0000000------------------|
GTR II
  |--RIFF I-----------------RIFF II------------------|

     Habang ikay kapiling ko


GTR I
     C           D	    Em		  Dsus/F#
eb|--0000000-----2222222----0000000-------2222222----|
Bb|--1111111-----3333333----0000000-------3333333----|
Gb|--0000000-----2222222----0000000-------2222222----|
Db|--2222222-----0000000----2222222-------4444444----|
Ab|--3333333----------------2222222-------xxxxxxx----|
Eb|-------------------------0000000-------xxxxxxx----|
GTR II
  |--RIFF I-----------------RIFF II-------RIFF I-----|
   Siguro ngay maraming dahilanKang maibibigay ngunit


GTR I
     C           D	    Em		  Dsus/F#
eb|--0000000-----2222222----0000000-------2222222----|
Bb|--1111111-----3333333----0000000-------3333333----|
Gb|--0000000-----2222222----0000000-------2222222----|
Db|--2222222-----0000000----2222222-------4444444----|
Ab|--3333333----------------2222222-------xxxxxxx----|
Eb|-------------------------0000000-------xxxxxxx----|
GTR II
eb|--------------------------R-------0-----2~~~~~----|
Bb|--------------------------I------3-3----3~~~~~----|
Gb|--------------------------F-----0---0-------------|
Db|--------------------------F----2------------------|
Ab|--------------------------2-----------------------|
Eb|--------------------------------------------------|
   Ako ay may isang tanong

CHORUS

GTR I
     C                G
eb|--0000000----------3333333------------------------|
Bb|--1111111----------3333333------------------------|
Gb|--0000000----------0000000------------------------|
Db|--2222222----------0000000------------------------|
Ab|--3333333----------2222222------------------------|
Eb|-------------------3333333------------------------|
GTR II
  |--2h3s10-----------12s7---------------------------|
  |--3-3s10--------------7---------------------------|
   Di ka ba magtatagal


GTR I
     C            Cm           G
eb|--0000000------333----------3333333---------------|
Bb|--1111111------444----------3333333---------------|
Gb|--0000000------555----------0000000---------------|
Db|--2222222------555----------0000000---------------|
Ab|--3333333------333----------2222222---------------|
Eb|----------------------------3333333---------------|
GTR II
eb|--2s3s10--------------------8p7-7-----------------|
Bb|--------------------------------------------------|
    Pagtigil moy dalangin na aking inaasam

GTR I
     C                G
eb|--0000000----------3333333------------------------|
Bb|--1111111----------3333333------------------------|
Gb|--0000000----------0000000------------------------|
Db|--2222222----------0000000------------------------|
Ab|--3333333----------2222222------------------------|
Eb|-------------------3333333------------------------|
GTR II
eb|---2s3s10-----------12s7--------------------------|
Bb|--------------------------------------------------|
       Siguro ngay paalam na


GTR I
     Am      Bm     C     D     G
eb|--0--------2-----0-----3-----3--------------------|
Bb|--1--------3-----1-----2-----3--------------------|
Gb|--2--------4-----0-----3-----0--------------------|
Db|--2--------4-----2-----4-----0--------------------|
Ab|--0--------2-----3-----------2--------------------|
Eb|-----------------------------3--------------------|
GTR II
  |--RIFF-1---------------12h14-15-------------------|
    Subalit may iiwan kang puwang

VERSE II

GTR I
     C           D	    Em		  Dsus/F#
eb|--0000000-----2222222----0000000-------2222222----|
Bb|--1111111-----3333333----0000000-------3333333----|2x sa round 2
papasok
Gb|--0000000-----2222222----0000000-------2222222----|ung GTR II
Db|--2222222-----0000000----2222222-------4444444----|
Ab|--3333333----------------2222222-------xxxxxxx----|
Eb|-------------------------0000000-------xxxxxxx----|
GTR II
eb|--------------------------R-------0-----2~~~~~----|
Bb|--------------------------I------3-3----3~~~~~----|
Gb|--------------------------F-----0---0-------------|
Db|--------------------------F----2------------------|
Ab|--------------------------2-----------------------|
Eb|--------------------------------------------------|
Kung kaya kong pigilan lang ang oras Sa kanyang pintig
Asahan mong akoy di hihinto

CHORUS

GTR I
     C                G
eb|--0000000----------3333333------------------------|
Bb|--1111111----------3333333------------------------|
Gb|--0000000----------0000000------------------------|
Db|--2222222----------0000000------------------------|3x
Ab|--3333333----------2222222------------------------|
Eb|-------------------3333333------------------------|
GTR II
  |--2s3s10-----------RIFF-3-------------------------|
  |------10------------------------------------------|
       Akoy isang manhid na di makikinig
       Sa bawat sasabihin ng mundo
       Akoy isang manhid na di makikinig


GTR I
     Am      Bm     C     D     G
eb|--0--------2-----0-----3-----3-------strum---3----|
Bb|--1--------3-----1-----2-----3-------pataas>>0----|
Gb|--2--------4-----0-----3-----0---------------0----|
Db|--2--------4-----2-----0-----0---------------0----|
Ab|--0--------2-----3-----------2--------------------|
Eb|-----------------------------3--------------------|
      Hanggang ikaw pay naririto
GTR II
eb|--------------------------------------------------|
Bb|--------------------------------------------------|
Gb|--------------------------------------------------|
Db|------------------------------55555555------------|
Ab|------------------------------55555555------------|
Eb|------------------------------33333333------------|

SOLO

GTR I
     C           D	    Em		  Dsus/F#
eb|--0000000-----2222222----0000000-------2222222----|
Bb|--1111111-----3333333----0000000-------3333333----|
Gb|--0000000-----2222222----0000000-------2222222----|
Db|--2222222-----0000000----2222222-------4444444----|
Ab|--3333333----------------2222222-------xxxxxxx----|
Eb|-------------------------0000000-------xxxxxxx----|
 GTR II
     C     	 D          Em             D/F#
eb|--------------------------------------------------|
Bb|-7s8----------8s10-------12-12--------------------|
Gb|--------------------------------------------------|

GTR I
     C           D	    Em
eb|--0000000-----2222222----0000000------------------|
Bb|--1111111-----3333333----0000000------------------|
Gb|--0000000-----2222222----0000000------------------|
Db|--2222222-----0000000----2222222------------------|
Ab|--3333333----------------2222222------------------|
Eb|-------------------------0000000------------------|
GTR II
   C              D          Em
eb|-7\10---------------------------------------------|
Bb|-------------12-12--------10-10-------------------|
Gb|--------------------------------------------------|


GTR I
     C           D	    Em		  Dsus/F#
eb|--0000000-----2222222----0000000-------2222222----|
Bb|--1111111-----3333333----0000000-------3333333----|
Gb|--0000000-----2222222----0000000-------2222222----|
Db|--2222222-----0000000----2222222-------4444444----|
Ab|--3333333----------------2222222-------xxxxxxx----|
Eb|-------------------------0000000-------xxxxxxx----|
GTR II
eb|--7s10--------------------------------------------|
Bb|--------------7-7-8----8-/-15--------12-12s10-10s8|
Gb|----------------------(7)/(14)--------------------|


GTR I
     C           D	    Em		  Dsus/F#
eb|--0000000-----2222222----0000000-------2222222----|
Bb|--1111111-----3333333----0000000-------3333333----|
Gb|--0000000-----2222222----0000000-------2222222----|
Db|--2222222-----0000000----2222222-------4444444----|
Ab|--3333333----------------2222222-------xxxxxxx----|
Eb|-------------------------0000000-------xxxxxxx----|
GTR II
   C       	 D          Em                D/F#
e|-----------------------------------------------7s10|
B|-8-/-12------10-10s8-8s7-5--------5-7-8-7-8-10-----|
G|(9)/(10)-------------------------------------------|


CHORUS

GTR I
     C                G
eb|--0000000----------3333333------------------------|
Bb|--1111111----------3333333------------------------|
Gb|--0000000----------0000000------------------------|
Db|--2222222----------0000000------------------------|
Ab|--3333333----------2222222------------------------|
Eb|-------------------3333333------------------------|
GTR II
  |--RIFF-I-----------RIFF-II------------------------|
     Di ka ba magtatagal

GTR I
     C            Cm           G
eb|--0000000------333----------3333333---------------|
Bb|--1111111------444----------3333333---------------|
Gb|--0000000------555----------0000000---------------|
Db|--2222222------555----------0000000---------------|
Ab|--3333333------333----------2222222---------------|
Eb|----------------------------3333333---------------|
GTR II
eb|--R-----------------------------------------------|
Bb|--I-----------------------------------------------|
Gb|--F-----------------------------------------------|
Db|--F----------------------------9------------------|
Ab|--1-------------------------5s10------------------|
Eb|--------------------------------------------------|
Pagtigil moy dalangin na aking inaasam

GTR I
     C                G
eb|--0000000----------3333333------------------------|
Bb|--1111111----------3333333------------------------|
Gb|--0000000----------0000000------------------------|
Db|--2222222----------0000000------------------------|
Ab|--3333333----------2222222------------------------|
Eb|-------------------3333333------------------------|
GTR II
eb|--3s12--------------------------------------------|
Bb|--------------------3s10--------------------------|
Gb|-----------------------9--------------------------|
Db|--------------------------------------------------|
Ab|--------------------------------------------------|
Eb|--------------------------------------------------|
     Siguro ngay paalam na

GTR I
eb|--0-----3----0-----3-----3------------------------|
Bb|--1-----3----1-----3-----3------------------------|
Gb|--2-----0----0-----0-----0------------------------|
Db|--2-----x----2-----x-----0------------------------|
Ab|--0-----2----3-----2-----2------------------------|
Eb|-------------------------3------------------------|
GTR II
eb|--3s16------------8s12--19------------------------|
Bb|--------------------------------------------------|
Gb|--------------------------------------------------|
Db|--------------------------------------------------|
Ab|--------------------------------------------------|
Eb|--------------------------------------------------|
Subalit may iiwan kang puwang


GTR I
     C           D	    Em		  Dsus/F#
eb|--0000000-----2222222----0000000-------2222222----|
Bb|--1111111-----3333333----0000000-------3333333----|
Gb|--0000000-----2222222----0000000-------2222222----|
Db|--2222222-----0000000----2222222-------4444444----|
Ab|--3333333----------------2222222-------xxxxxxx----|
Eb|-------------------------0000000-------xxxxxxx----|
Patuloy na pumapatak  Ang bawat sandaling natitira
GTR II
GTR II
eb|-----0-----------3----------0-------------2----2--|
Bb|----3-3---------2-2--------3-3-----------3-3---3--|
Gb|---0-----------3---3------0---0---------2---2-----|
Db|--------------0----------2-------------4----------|
Ab|--3-----------------------------------------------|


     C           D	    Em
eb|--0000000-----2222222----0000000------------------|
Bb|--1111111-----3333333----0000000------------------|
Gb|--0000000-----2222222----0000000------------------|
Db|--2222222-----0000000----2222222------------------|
Ab|--3333333----------------2222222------------------|
Eb|-------------------------0000000------------------|
GTR II
  |-------------------------RIFF II------------------|
Habang ikay kapiling ko


|==========================================================================|
|==========================================================================|
|==========================================================================|

|==================================================|
|==================================================|
|						   |
|            DO YOU KNOW THIS FEELING              |
|						   |
|==================================================|
|==================================================|

VERSE

eb|----------|----------|----------|----------|
Bb|----------|----------|----------|----------|
Gb|----------|----------|----------|----------|
Db|----------|----------|----------|----------|
Ab|----------|----------|----------|----------|
Eb|----------|----------|----------|----------|

GTR I
	D	DM7/C#       F#m	G
eb|-----------|----------|----------|----------|
Bb|-----------|----------|----------|----------|
Gb|-77777777--|-66666666-|----------|----------|4x
Db|-77777777--|-77777777-|-44444444-|-55555555-|
Ab|-55555555--|-44444444-|-44444444-|-55555555-|
Eb|-----------|----------|-22222222-|-33333333-|
GTR II
eb|--10-----------|
Bb|10--10-9-11-12-| papasok to sa 3r & 4rt round
Gb|-------9-11-12-| gawin nyo 2 sa bawat chords ha
Db|---------------|
Ab|---------------|
Eb|---------------|

I look back to me and what do i see It must have been 1993
Had no other care but the wave of your hair and the way you
wouldnt-look at me
What happened that day has managed to stay through a decade worth
of-misery
But what did I miss, a moment of bliss the best of all the years
gone by

eb|----------|
Bb|----------|
Gb|----------|
Db|-7-7------|
Ab|-7-7------|
Eb|-5-5------|

CHORUS

    G              A
eb|--------------|---------|
Bb|--------------|---------|
Gb|--------------|---------|3x
Db|-555555555555-|-7-7-----|
Ab|-555555555555-|-7-7-----|
Eb|-333333333333-|-5-5-----|
   Do you know the feeling
   Do you know the feeling
   Do you know the feeling
eb|----------|
Bb|----------|
Gb|----------|
Db|-55555555-|
Ab|-55555555-|
Eb|-33333333-|
   Do you know the feeling

   Em         F#m         G          A               A
eb|----------|----------|----------|----------|    |---------|
Bb|----------|----------|----------|----------|    |---------|
Gb|----------|----------|----------|----------| 2x |---------|
Db|-22222222-|-44444444-|-55555555-|-77777777-|then|-7-7-----|
Ab|-22222222-|-44444444-|-55555555-|-77777777-|	   |-7-7-----|
Eb|-00000000-|-22222222-|-33333333-|-55555555-|    |-5-5-----|
   I want to hold your hand and try| to dance but I cant
   I want this just one kiss the years fall away


    G              A
eb|--------------|---------|
Bb|--------------|---------|
Gb|--------------|---------| 3x
Db|-555555555555-|-7-7-----|
Ab|-555555555555-|-7-7-----|
Eb|-333333333333-|-5-5-----|
   Do you know the feeling
   Do you know the feeling
   Do you know the feeling
eb|----------|
Bb|----------|
Gb|----------|
Db|-55555555-|
Ab|-55555555-|
Eb|-33333333-|
  Do you know the

   Em         F#m         G          A
eb|----------|----------|----------|----------|
Bb|----------|----------|----------|----------|
Gb|----------|----------|----------|----------|
Db|-22222222-|-44444444-|-55555555-|-77777777-|3x
Ab|-22222222-|-44444444-|-55555555-|-77777777-|
Eb|-00000000-|-22222222-|-33333333-|-55555555-|
   I want to hold your hand but time moves faster now that
   I stand still so speechless how can I bridge the distance
   It just might feel so right if you could hold me tonight

   Bm              C          G          A
eb|----------|----------|----------|----------|
Bb|----------|----------|----------|----------|
Gb|-44444444-|-55555555-|----------|----------|
Db|-44444444-|-55555555-|-55555555-|-----7----|
Ab|-22222222-|-33333333-|-55555555-|-----7----|
Eb|----------|----------|-33333333-|-----5----|
   I want this just one kiss The years fall away

SOLO

eb|-----------------------------|
Bb|-----------------------------|
Gb|-9/11-9-7---7-----7--7-------|
Db|----------9--7h9---9----7-7--|
Ab|------------------------7-7--|
Eb|------------------------5-5--|

GTR I
    G		   A
eb|--------------|--------|
Gb|--------------|--------|
Gb|--------------|--------|
Db|-555555555555-|--------|
Ab|-555555555555-|-4-5-0--|
Eb|-333333333333-|--------|

GTR II
eb|-----------------------10-10---12s14-14-14s12-10----------|
Bb|-------------------9s12------12--------------------10-----|
Gb|9s11-9-9-7------------------------------------------------|
Db|-----------9----------------------------------------------|
Ab|----------------------------------------------------------|
Eb|----------------------------------------------------------|

ROGEM - > full bend nyo ung 17b ha hangang maging
	  kasing 2nog nya ung 19 eb String ung 21 half bend
	  lang

GTR II
    f.b.  f.b.  f.b.            h.b.
eb|-17b---17b---17b--19p18p16---21b-----22-22-22-19-19-------|
Bb|----------------------------------------------------------|
Gb|----------------------------------------------------------|
Db|----------------------------------------------------------|
Ab|----------------------------------------------------------|
Eb|----------------------------------------------------------|


CHORUS
GTR I
eb|------------------|
Bb|------------------|
Gb|------------------|
Db|-5----------------|2x
Ab|-5--------4h5-0---|
Eb|-3--------------3-|
Do you know the feeling
Do you know the feeling

GTR I
eb|------------------|
Bb|------------------|
Gb|------------------|
Db|-5----------------|
Ab|-5--------4-5-0---|
Eb|-3----------------|
GTR II
eb|--9b--------|
Bb|--9b--------|
Gb|------------|
Db|------------|
Ab|------------|
Eb|------------|
Do you know the feeling

   G
e|-------------------|
B|-------------------|
G|-------------------|
D|-5-x-x-x-x---------|
A|-5-x-x-x-x---------|
E|-3-x-x-x-x-3/11\---|
   Do you know that

   Em         F#m         G          A
eb|----------|----------|----------|----------|
Bb|----------|----------|----------|----------|
Gb|----------|----------|----------|----------|
Db|-22222222-|-44444444-|-55555555-|-77777777-|2x
Ab|-22222222-|-44444444-|-55555555-|-77777777-|
Eb|-00000000-|-22222222-|-33333333-|-55555555-|
   I want this just one kiss tonight its all that matters
   I want this just one kis and it will all be over

GTR I

   F#m        G#m        A             B
eb|----------|----------|----------|----------|
Bb|----------|----------|----------|----------|
Gb|----------|----------|----------|----------|4x
Db|-44444444-|-66666666-|-77777777-|-99999999-|GTR II
Ab|-44444444-|-66666666-|-77777777-|-99999999-|sa 3rd
Eb|-22222222-|-44444444-|-55555555-|-77777777-|round

GTR II
eb|----------|----------|----------|----------|
Bb|-55555555-|-77777777-|-99999999-|-12(8x)---|
Gb|----------|----------|----------|----------|
Db|----------|----------|----------|----------|
Ab|----------|----------|----------|----------|
Eb|----------|----------|----------|----------|
   Whenever, wherever lets finish what we started
   From back then, my silence spoke through a ten year absence
   In secret still feel it just take my hand and follow
   Walk with me til tomorrow you wont have to dance

VERSE III

    E          E/Eb       G#m             A
eb|----------|----------|----------|----------|
Bb|----------|----------|----------|----------|
Gb|-99999999-|-88888888-|----------|----------|
Db|-99999999-|-99999999-|-66666666-|-77777777-|
Ab|-77777777-|-66666666-|-66666666-|-77777777-|
Eb|----------|----------|-44444444-|-55555555-|
Now Dat I c yuve grown out of me I guess its back to reality
One night at the park held your hands in the park made some promises we
couldnt keep
Some days I had won now here i am on, a tym and place apart from me
And what did I miss, a moment of bliss the best of all the years
gone by


   A
e|---------|
B|---------|
G|---------|
D|-7-------|
A|-7-------|
E|-5-------|

|==========================================================================|
|==========================================================================|
|==========================================================================|


|==================================================|
|==================================================|
|						   |
|          SA BINGIT NG ISANG PAALAM               |
|						   |
|==================================================|
|==================================================|

VERSE I
GTR I
       F           Cm         Gm        Bb
eb|----1-----------3----------3---------1----1--|
Bb|----1-----------4----------3---------3---3---|
Gb|----2-----------5----------3---------3-------|
Db|----3-----------5----------5---------3-------|
Ab|----3-----------3----------5---------1-------|
Eb|----1-----------x----------3---------x-------|

ROGEM - Sa verse tag isang strum lang

F
Sa isang tingin ko lang
		Cm
Agad ko nang napupuna
Gm
Sa likod ng yong ngiti
Bb
At kung paano ka tumitig sakin

( ROGEM ) d2 strumming na

F
Tulad ng unang bituing
	Cm
Iyong matatanaw
Gm
Sa nag-aambang dilim
Bb
Buong ningning parin kahit makain


REFRAIN
     Dm           Am            Bb          F  - C
eb|-111111-|--000000----|---111111----|-----1-1--0-|
Bb|-333333-|--111111----|---333333----|-----1-1--1-|
Gb|-222222-|--222222----|---333333----|-----2-2--0-|
Db|-000000-|--222222----|---333333----|-----3-3--2-|
Ab|-xxxxxx-|--000000----|---111111----|-----3-3--3-|
Eb|-xxxxxx-|--xxxxxx----|---xxxxxx----|-----1-1--x-|
Kinakailangan nga bang magtuos Wala tayong dapat simulan
     Dm           Am          Gm            Bb
eb|-111111-|--000000----|---333333----|-----1----1-|
Bb|-333333-|--111111----|---333333----|-----3---3--|
Gb|-222222-|--222222----|---333333----|-----3------|
Db|-000000-|--222222----|---555555----|-----3------|
Ab|-xxxxxx-|--000000----|---555555----|-----1------|
Eb|-xxxxxx-|--xxxxxx----|---333333----|-----xxxxxx-|
Akoy kaharap mot nandito ngayon Sabihin kung naguguluhan


CHORUS

    F                Am
eb|-1-1-1-1-1-1-1--|-0-0-0-0-0-0-0--|
Bb|-1-1-1-1-1-1-1--|-1-1-1-1-1-1-1--|
Gb|-2-2-2-2-2-2-2--|-2-2-2-2-2-2-2--|
Db|-3-3-3-3-3-3-3--|-2-2-2-2-2-2-2--|
Ab|-3-3-3-3-3-3-3--|-0-0-0-0-0-0-0--|
Eb|-1-1-1-1-1-1-1--|----------------|

    F		     Am
sa isang paalam lamang ba lahat magtatapos

    Dm		     C                Bb
eb|-1-1-1-1-1-1-1--|-0-0-0-0-0-0-0--|-1111-------|
Bb|-3-3-3-3-3-3-3--|-1-1-1-1-1-1-1--|-3333-------|
Gb|-2-2-2-2-2-2-2--|-0-0-0-0-0-0-0--|-3333-------|
Db|-0-0-0-0-0-0-0--|-2-2-2-2-2-2-2--|-3333-------|
Ab|----------------|-3-3-3-3-3-3-3--|-1111-------|
Eb|----------------|----------------|------------|
    Dm                C         Bb
  Sa isang saglit lahat malilipol

    F                Am
eb|-1-1-1-1-1-1-1--|-0-0-0-0-0-0-0--|
Bb|-1-1-1-1-1-1-1--|-1-1-1-1-1-1-1--|
Gb|-2-2-2-2-2-2-2--|-2-2-2-2-2-2-2--|
Db|-3-3-3-3-3-3-3--|-2-2-2-2-2-2-2--|
Ab|-3-3-3-3-3-3-3--|-0-0-0-0-0-0-0--|
Eb|-1-1-1-1-1-1-1--|----------------|
F                     Am
Di ko mahahayaan na walang magagawa

    Dm		     C                Bb
eb|-1-1-1-1-1-1-1--|-0-0-0-0-0-0-0--|-1-----1--------|
Bb|-3-3-3-3-3-3-3--|-1-1-1-1-1-1-1--|-3---3----------|
Gb|-2-2-2-2-2-2-2--|-0-0-0-0-0-0-0--|-3--------------|
Db|-0-0-0-0-0-0-0--|-2-2-2-2-2-2-2--|-3--------------|
Ab|----------------|-3-3-3-3-3-3-3--|-1--------------|
Eb|----------------|----------------|----------------|
   Dm          C         Bb
Ayaw kitang lumuhang nag-iisa


VERSE II
GTR I
       F           Cm         Gm           Bb
eb|----1-1-1-1-1---3-3-3-3-3--3-3-3-3-3-----1-----1-|
Bb|----1-1-1-1-1---4-4-4-4-4--3-3-3-3-3-----3---3---|
Gb|----2-2-2-2-2---5-5-5-5-5--3-3-3-3-3-----3-------|
Db|----3-3-3-3-3---5-5-5-5-5--5-5-5-5-5-----3-------|
Ab|----3-3-3-3-3---3-3-3-3-3--5-5-5-5-5-----1-------|
Eb|----1-1-1-1-1---x-X-X-X-X--3-3-3-3-3-----x-------|
GTR II
       F           Cm         Gm          Bb
eb|-----------------3--3------10------------1-6-----|
Bb|-----------------4--4------10----------3---------|
Gb|-----------------5-------------------------------|
Db|-------------------------------------------------|
Ab|-------------------------------------------------|
Eb|-------------------------------------------------|
F                          Cm
Pasensya nat akoy muling nauutal
Gm
Bumabagal ang pintig
Bb
Bumibigat laman ng aking dibdib

GTR I
       F           Cm         Gm           Bb
eb|----1-1-1-1-1---3-3-3-3-3--3-3-3-3-3-----1-----1-|
Bb|----1-1-1-1-1---4-4-4-4-4--3-3-3-3-3-----3---3---|
Gb|----2-2-2-2-2---5-5-5-5-5--3-3-3-3-3-----3-------|
Db|----3-3-3-3-3---5-5-5-5-5--5-5-5-5-5-----3-------|
Ab|----3-3-3-3-3---3-3-3-3-3--5-5-5-5-5-----1-------|
Eb|----1-1-1-1-1---x-X-X-X-X--3-3-3-3-3-----x-------|
GTR II Part 2
       F           Cm         Gm          Bb
eb|-----------------3--3-----10~----------10--------|
Bb|-----------------4--4-----10~-------------11-----|
Gb|-----------------5-------------------------------|
Db|-------------------------------------------------|
Ab|-------------------------------------------------|
Eb|-------------------------------------------------|
F                           Cm
Hayaan mong hawakan ko ang yong kamay
Gm                        Bb
Upang mapawi ang lamig ng init pang nararamdaman


REFRAIN

     Dm           Am            Bb          F  - C
eb|-111111-|--000000----|---111111----|-----1----0-|
Bb|-333333-|--111111----|---333333----|-----1----1-|
Gb|-222222-|--222222----|---333333----|-----2----0-|
Db|-000000-|--222222----|---333333----|-----3----2-|
Ab|-xxxxxx-|--000000----|---111111----|-----3----3-|
Eb|-xxxxxx-|--xxxxxx----|---xxxxxx----|-----1----x-|
Kailangan nating isiping lubos Ano nga bang ating dahilan
     Dm           Am          Gm            Bb
eb|-111111-|--000000----|---333333----|-----1------|
Bb|-333333-|--111111----|---333333----|-----3------|
Gb|-222222-|--222222----|---333333----|-----3------|
Db|-000000-|--222222----|---555555----|-----3------|
Ab|-xxxxxx-|--000000----|---555555----|-----1------|
Eb|-xxxxxx-|--xxxxxx----|---333333----|-----xxxxxx-|
San nga ba tayo nakatuon Kay rami nang mga nagdaan


CHORUS


    F                Am
eb|-1-1-1-1-1-1-1--|-0-0-0-0-0-0-0--|
Bb|-1-1-1-1-1-1-1--|-1-1-1-1-1-1-1--|
Gb|-2-2-2-2-2-2-2--|-2-2-2-2-2-2-2--|
Db|-3-3-3-3-3-3-3--|-2-2-2-2-2-2-2--|
Ab|-3-3-3-3-3-3-3--|-0-0-0-0-0-0-0--|
Eb|-1-1-1-1-1-1-1--|----------------|

    F		     Am
sa isang paalam lamang ba lahat magtatapos

    Dm		     C                Bb
eb|-1-1-1-1-1-1-1--|-0-0-0-0-0-0-0--|-1111-------|
Bb|-3-3-3-3-3-3-3--|-1-1-1-1-1-1-1--|-3333-------|
Gb|-2-2-2-2-2-2-2--|-0-0-0-0-0-0-0--|-3333-------|
Db|-0-0-0-0-0-0-0--|-2-2-2-2-2-2-2--|-3333-------|
Ab|----------------|-3-3-3-3-3-3-3--|-1111-------|
Eb|----------------|----------------|------------|
    Dm                C         Bb
  Sa isang saglit lahat malilipol

    F                Am
eb|-1-1-1-1-1-1-1--|-0-0-0-0-0-0-0--|
Bb|-1-1-1-1-1-1-1--|-1-1-1-1-1-1-1--|
Gb|-2-2-2-2-2-2-2--|-2-2-2-2-2-2-2--|
Db|-3-3-3-3-3-3-3--|-2-2-2-2-2-2-2--|
Ab|-3-3-3-3-3-3-3--|-0-0-0-0-0-0-0--|
Eb|-1-1-1-1-1-1-1--|----------------|
F                     Am
Di ko mahahayaan na walang magagawa

    Dm		     C                Bb
eb|-1-1-1-1-1-1-1--|-0-0-0-0-0-0-0--|-1-----1--------|
Bb|-3-3-3-3-3-3-3--|-1-1-1-1-1-1-1--|-3---3----------|
Gb|-2-2-2-2-2-2-2--|-0-0-0-0-0-0-0--|-3--------------|
Db|-0-0-0-0-0-0-0--|-2-2-2-2-2-2-2--|-3--------------|
Ab|----------------|-3-3-3-3-3-3-3--|-1--------------|
Eb|----------------|----------------|----------------|
   Dm          C         Bb
Ayaw kitang lumuhang nag-iisa

GTR I
eb|-333333--5--66666-|
Bb|-333333--5--66666-|
Gb|-333333--6--77777-|
Db|-555555--7--88888-|
Ab|-555555--7--88888-|
Eb|-333333--5--66666-|
GTR II
eb|-xxxxxx--x--xxxxx-|
Bb|-xxxxxx--x--xxxxx-|
Gb|-xxxxxx--x--xxxxx-|
Db|-555555--7--88888-|
Ab|-555555--7--88888-|
Eb|-333333--5--66666-|
Gm                     A   Bb
Kung meron lang ako ng pagkakataong
Gm             A  Bb
Sabihin sayo ang lahat


INTERLUDE


eb|------------------------------------------------------|
Bb|------------------------------------------------------|
Gb|-5-5---7-----------------------------7-7---5-5--------|
Db|-5-5---7-----7-7-8-8-----5-5---3-----7-7---5-5--------|
Ab|-3-3---5-----7-7-8-8-----5-5---3-----5-5---3-3--------|
Eb|-------------5-5-6-6-----3-3---1----------------------|

eb|------------------------------------------------------|
Bb|------------------------------------------------------|
Gb|-5-5---7-------------------------------------5--------|
Db|-5-5---7-----7-7-8-8-----5-5---3-----x-x-----5--------|
Ab|-3-3---5-----7-7-8-8-----5-5---3-------------3--------|
Eb|-------------5-5-6-6-----3-3---1----------------------|

VERSE 3

GTR I
       F           Cm         Gm        Bb
eb|----1-----------3----------3---------1-------|
Bb|----1-----------4----------3---------3-------|
Gb|----2-----------5----------3---------3-------|
Db|----3-----------5----------5---------3-------|
Ab|----3-----------3----------5---------1-------|
Eb|----1-----------x----------3---------x-------|
GTR II
       F           Cm         Gm        Bb
eb|----------------3-3-3-3----3-3-3-3---6-6-6-6-|
Bb|-----------------4-4-4-4----3-3-3-3---6-6-6-6|
Gb|---------------------------------------------|
Db|---------------------------------------------|
Ab|---------------------------------------------|
Eb|---------------------------------------------|


F
Maya mayay
              Cm
Di na rin magtatagal
Gm
Matatapos ang gabit
      Bb
Ang nagdaay di na mananatili


REFRAIN

     Dm           Am            Gm            Bb
eb|-111111----|---000000----|---333333----|-----1----1-|
Bb|-333333----|---111111----|---333333----|-----3---3--|
Gb|-222222----|---222222----|---333333----|-----3------|
Db|-000000----|---222222----|---555555----|-----3------|
Ab|-xxxxxx----|---000000----|---555555----|-----1------|
Eb|-xxxxxx----|---xxxxxx----|---333333----|-----xxxxxx-|
GTR II
     Dm            Am           Gm            Bb
eb|-13--13--13--13--8--8--8--8----3-3-3-3-------6x-|
Bb|---15--15--15--15-10-10-10-10---3-3-3-3------6x-|
Gb|------------------------------------------------|
Db|------------------------------------------------|
Ab|------------------------------------------------|
Eb|------------------------------------------------|

Saan nga ba tayo nakatuon Ano nga bang ating dahilan

CHORUS
    F                Am
eb|-1-1-1-1-1-1-1--|-0-0-0-0-0-0-0--|
Bb|-1-1-1-1-1-1-1--|-1-1-1-1-1-1-1--|
Gb|-2-2-2-2-2-2-2--|-2-2-2-2-2-2-2--|
Db|-3-3-3-3-3-3-3--|-2-2-2-2-2-2-2--|
Ab|-3-3-3-3-3-3-3--|-0-0-0-0-0-0-0--|
Eb|-1-1-1-1-1-1-1--|----------------|
    F		     Am
sa isang paalam lamang ba lahat magtatapos

    Dm		     C                Bb
eb|-1-1-1-1-1-1-1--|-0-0-0-0-0-0-0--|-1111-------|
Bb|-3-3-3-3-3-3-3--|-1-1-1-1-1-1-1--|-3333-------|
Gb|-2-2-2-2-2-2-2--|-0-0-0-0-0-0-0--|-3333-------|
Db|-0-0-0-0-0-0-0--|-2-2-2-2-2-2-2--|-3333-------|
Ab|----------------|-3-3-3-3-3-3-3--|-1111-------|
Eb|----------------|----------------|------------|
    Dm                C         Bb
  Sa isang saglit lahat malilipol

    F                Am
eb|-1-1-1-1-1-1-1--|-0-0-0-0-0-0-0--|
Bb|-1-1-1-1-1-1-1--|-1-1-1-1-1-1-1--|
Gb|-2-2-2-2-2-2-2--|-2-2-2-2-2-2-2--|
Db|-3-3-3-3-3-3-3--|-2-2-2-2-2-2-2--|
Ab|-3-3-3-3-3-3-3--|-0-0-0-0-0-0-0--|
Eb|-1-1-1-1-1-1-1--|----------------|
F                     Am
Di ko mahahayaan na walang magagawa

    Dm		     C                Bb
eb|-1-1-1-1-1-1-1--|-0-0-0-0-0-0-0--|-1-----1--------|
Bb|-3-3-3-3-3-3-3--|-1-1-1-1-1-1-1--|-3---3----------|
Gb|-2-2-2-2-2-2-2--|-0-0-0-0-0-0-0--|-3--------------|
Db|-0-0-0-0-0-0-0--|-2-2-2-2-2-2-2--|-3--------------|
Ab|----------------|-3-3-3-3-3-3-3--|-1--------------|
Eb|----------------|----------------|----------------|
   Dm          C         Bb
Ayaw kitang lumuhang nag-iisa

GTR I
eb|-333333--5--66666-|
Bb|-333333--5--66666-|
Gb|-333333--6--77777-|
Db|-555555--7--88888-|
Ab|-555555--7--88888-|
Eb|-333333--5--66666-|
GTR II
eb|-xxxxxx--x--xxxxx-|
Bb|-xxxxxx--x--xxxxx-|
Gb|-xxxxxx--x--xxxxx-|
Db|-555555--7--88888-|
Ab|-555555--7--88888-|
Eb|-333333--5--66666-|
Kung meron lang ako ng pagkakataong
Kung meron lang ako ng pagkakataong

eb|----------|
Bb|----------|
Gb|-----x----|
Db|-----x----|
Ab|----------|
Eb|----------|
Sabihin sayo ang lahat

|==========================================================================|
|==========================================================================|
|==========================================================================|


|==================================================|
|==================================================|
|						   |
|                MY SELF IN YOU                    |
|						   |
|==================================================|
|==================================================|


INTRO
GTR I
eb|----------------------------------------------------------------|
Bb|----------------------------------------------------------------|
Gb|--5--6---8---10---5--5--6---8--10---5--5--6---8--10--6-6---5-5--|
Db|--5--5---9---10---5--5--5---9--10---5--5--5---9--10--7-7---5-5--|4x
Ab|-----------------------------------------------------7-7---5-5--|
Eb|----------------------------------------------------------------|

GTR II pasok 2 sa 2nd round pagkastapos n2 ung Round 3 naman
eb|----------------------------------------------------------------|
Bb|----------------------------------------------------------------|
Gb|---------------4s5--------------4s5-----------------------------|
Db|----------------------------------------------------------------|
Ab|----------------------------------------------------------------|
Eb|----------------------------------------------------------------|

GTR II 3rd Round
eb|--------------5-----------------5-----------------5--55555555---|
Bb|--5h6-5h6-5h6-6-----5h6-5h6-5h6-6-----5h6-5h6-5h6-6--66666666---|
Gb|55----------------55----------------55--------------------------|2x
Db|----------------------------------------------------------------|
Ab|----------------------------------------------------------------|
Eb|----------------------------------------------------------------|

VERSE I

ROGEM - e2 gagamitin nyo dun sa Verse ha sa
	bawat chord gagawin 2 ng GTR I hindi
	GTR II
GTR I
     F           Dm        Am         Bb
eb|----------|----------|------0---|------1---|
Bb|-6--------|--6-------|----1-----|----3-----|
Gb|-5--------|--7-------|--2-------|--3-------|2x
Db|-3--------|--7-------|----------|----------|
Ab|----------|----------|-0--------|-1--------|
Eb|----------|----------|----------|----------|
F            Dm         Am       Bb
I'll find a way to come home to you

F          Dm           Am  Bb
Tomorrows not that far away


GTR I
    F           Dm        Am         Bb
eb|----------|----------|------0---|------1---|
Bb|-6--------|--6-------|----1-----|----3-----|
Gb|-5--------|--7-------|--2-------|--3-------|
Db|-3--------|--7-------|----------|----------|
Ab|----------|----------|-0--------|-1--------|
Eb|----------|----------|----------|----------|
GTR II
    F           Dm        Am          Bb
eb|-8s13-----|----------|-8-8------|----------|
Bb|----------|----------|--8-8-----|----------|
Gb|----------|----------|----------|----------|
Db|----------|----------|----------|----------|
Ab|----------|----------|----------|----------|
Eb|----------|----------|----------|----------|
F            Dm         Am          Bb
I kiss your lips in my head, every night

GTR I
    F           Dm        Am         Bb
eb|----------|----------|------0---|------1---|
Bb|-6--------|--6-------|----1-----|----3-----|
Gb|-5--------|--7-------|--2-------|--3-------|
Db|-3--------|--7-------|----------|----------|
Ab|----------|----------|-0--------|-1--------|
Eb|----------|----------|----------|----------|
GTR II
    F           Dm        Am          Bb
eb|-8s13-----|----------|-8-8------|--13-13-13|
Bb|----------|----------|--8-8-----|--13-13-13|
Gb|----------|----------|----------|----------|
Db|----------|----------|----------|----------|
Ab|----------|----------|----------|----------|
Eb|----------|----------|----------|----------|
F          Dm               Am               Bb
I dream about the endless fire, the flaming sky


REFRAIN

GTR I
   Am	     Bb	      Gm       C
eb|-00000--|-11111--|-33333--|-00000--|
Bb|-11111--|-33333--|-33333--|-11111--|
Gb|-22222--|-33333--|-33333--|-00000--|
Db|-22222--|-33333--|-55555--|-22222--|
Ab|-00000--|-11111--|-55555--|-33333--|
Eb|-xxxxx--|-xxxxx--|-33333--|-xxxxx--|
GTR II
eb|---10---|--------|---10-12|--------|
Bb|10----10|--------|10------|--------|
Gb|--------|--------|--------|--------|
Am     Bb        Gm             C
Find me, coz im lost in this reality

   Am	     Bb	      Gm       C
eb|-00000--|-11111--|-33333--|-00000--|
Bb|-11111--|-33333--|-33333--|-11111--|
Gb|-22222--|-33333--|-33333--|-00000--|
Db|-22222--|-33333--|-55555--|-22222--|
Ab|-00000--|-11111--|-55555--|-33333--|
Eb|-xxxxx--|-xxxxx--|-33333--|-xxxxx--|
GTR II
eb|---10---|--------|---10-12|-12(8x)-|
Bb|10----10|--------|10------|--------|
Gb|--------|--------|--------|--------|
Am     Bb        Gm             C
Find me, coz ill let you, ill let you


CHORUS
GTR I
    Bb	     Am		C
eb|-111111-|-000000-|-----00000000----|
Bb|-333333-|-111111-|-----11111111----|
Gb|-333333-|-222222-|-----00000000----|2x
Db|-333333-|-222222-|-----22222222----|
Ab|-111111-|-000000-|-----33333333----|
Eb|--------|--------|-----------------|
GTR II
eb|8-8-8-8\|-8/10\8-|-13-13-13-13---13-13-13-13-|
Bb|--------|-8/10\8-|-13-13-13-13---13-13-13-13-|
Gb|--------|--------|---------------------------|
Bb Am        C
I    just want to say, please just stay with me
I     am not ashamed to be the same with you

GTR I
    Bb	    Am      Dm      Gm      Bb      C
eb|-11111-|-00000-|-11111-|-33333-|-11111-|-0000-|
Bb|-33333-|-11111-|-33333-|-33333-|-33333-|-1111-|
Gb|-33333-|-22222-|-22222-|-33333-|-33333-|-0000-|
Db|-33333-|-22222-|-00000-|-55555-|-33333-|-2222-|
Ab|-11111-|-00000-|-------|-55555-|-11111-|-3333-|
Eb|-------|-------|-------|-33333-|-------|------|
GTR II
eb|-----5-|-------|3-3-3-3|5-5-5-5|-------|---8--|-------|
Bb|-6-8---|-------|4-4-4-4|6-6-6-6|-------|-8-8-8|6666666|
Gb|-------|-------|-------|-------|-------|------|-------|
    Bb-Am  	   Dm-Gm 		Bb-C
    I      	   I     	I find myself in you


INTERLUDE

GTR I
eb|----------------------------------------------------------------|
Bb|----------------------------------------------------------------|
Gb|--5--6---8---10---5--5--6---8--10---5--5--6---8--10-------------|
Db|--5--5---9---10---5--5--5---9--10---5--5--5---9--10-------------|2x
Ab|----------------------------------------------------------------|
Eb|----------------------------------------------------------------|
GTR II pasok sa 2nd round
eb|--------------5-----------------5-----------------5--55555555---|
Bb|--5h6-5h6-5h6-6-----5h6-5h6-5h6-6-----5h6-5h6-5h6-6--66666666---|
Gb|55----------------55----------------55--------------------------|
Db|----------------------------------------------------------------|
Ab|----------------------------------------------------------------|
Eb|----------------------------------------------------------------|

VERSE II
    F           Dm        Am         Bb
eb|----------|----------|------0---|------1---|
Bb|-6--------|--6-------|----1-----|----3-----|
Gb|-5--------|--7-------|--2-------|--3-------|
Db|-3--------|--7-------|----------|----------|
Ab|----------|----------|-0--------|-1--------|
Eb|----------|----------|----------|----------|


F          Dm          Am          Bb
Ive sat before on the floor of my room
F           Dm                 Am             Bb
I always thought that it would be like this real soon

F             Dm               Am             Bb
But now your here, nothing to fear with those eyes
F           Dm            Am                     Bb
I cant explain why i grow weak when you look into mine


REFRAIN

GTR I
   Am	     Bb	      Gm       C
eb|-00000--|-11111--|-33333--|-00000--|
Bb|-11111--|-33333--|-33333--|-11111--|
Gb|-22222--|-33333--|-33333--|-00000--|
Db|-22222--|-33333--|-55555--|-22222--|
Ab|-00000--|-11111--|-55555--|-33333--|
Eb|-xxxxx--|-xxxxx--|-33333--|-xxxxx--|
GTR II
eb|---10---|--------|---10-12|--------|
Bb|10----10|--------|10------|--------|
Gb|--------|--------|--------|--------|
Am     Bb        Gm             C
Find me, coz im lost in this reality

   Am	     Bb	      Gm       C
eb|-00000--|-11111--|-33333--|-00000--|
Bb|-11111--|-33333--|-33333--|-11111--|
Gb|-22222--|-33333--|-33333--|-00000--|
Db|-22222--|-33333--|-55555--|-22222--|
Ab|-00000--|-11111--|-55555--|-33333--|
Eb|-xxxxx--|-xxxxx--|-33333--|-xxxxx--|
GTR II
eb|---10---|--------|---10-12|--------|
Bb|10----10|--------|10------|--------|
Gb|--------|--------|--------|--------|
Am     Bb        Gm             C
Find me, coz ill let you, ill let you

CHORUS
GTR I
    Bb	     Am		C
eb|-111111-|-000000-|-----00000000----|
Bb|-333333-|-111111-|-----11111111----|
Gb|-333333-|-222222-|-----00000000----|2x
Db|-333333-|-222222-|-----22222222----|
Ab|-111111-|-000000-|-----33333333----|
Eb|--------|--------|-----------------|
GTR II
eb|8-8-8-8\|-8/10\8-|-13-13-13-13---13-13-13-13-|
Bb|--------|-8/10\8-|-13-13-13-13---13-13-13-13-|
Gb|--------|--------|---------------------------|

Bb Am        C
I    just want to say, please just stay with me
I     am not ashamed to be the same with you

    Bb	    Am      Dm      Gm      Bb      C
eb|-11111-|-00000-|-11111-|-33333-|-11111-|-0000-|
Bb|-33333-|-11111-|-33333-|-33333-|-33333-|-1111-|
Gb|-33333-|-22222-|-22222-|-33333-|-33333-|-0000-|
Db|-33333-|-22222-|-00000-|-55555-|-33333-|-2222-|
Ab|-11111-|-00000-|-------|-55555-|-11111-|-3333-|
Eb|-------|-------|-------|-33333-|-------|------|

eb|-----5-|-------|-------|-------|-------|------|
Bb|-6-8---|-------|-------|-------|-------|-6(7x)|
Gb|-------|-------|-------|-------|-------|------|
    Bb-Am  	   Dm-Gm 		Bb-C
    I      	   I     	I find myself in you


ROGEM - d2 sa interlude medyo pinag dikit2x ko na ung
        solo ung magkakatabing 10 ten un ha hindi 1,0
        ung sa 15 & 13 fifteen and thirteen un hindi
        1,5 & 1,3

INTERLUDE GTR I - F Dm Am Bb (2x)
GTR II part 1
eb|-8-101010--8-8-8--101010--8-8-8--101010--8-8-8--101010----------|
Bb|-8--8-8-8--8-8-8---8-8-8--8-8-8---8-8-8--8-8-8---8-8-8----------|
Gb|----------------------------------------------------------------|
Db|----------------------------------------------------------------|
Ab|----------------------------------------------------------------|
Eb|----------------------------------------------------------------|
GTR II part 2
eb|--131313-151515--131313-151515-131313-151515--131313-151515-----|
Bb|--131313-131313--131313-131313-131313-131313--131313-131313-----|
Gb|----------------------------------------------------------------|
Db|----------------------------------------------------------------|
Ab|----------------------------------------------------------------|
Eb|----------------------------------------------------------------|
repeat GTR II part 1 & part 2 tapos 2ng nasa baba play nyo
GTR II
eb|-15-15-15-15-15-15-15-15-15-15-15-15-15-15----------------------|
Bb|----------------------------------------------------------------|

CHORUS
GTR I
    Bb	     Am		C
eb|-111111-|-000000-|-----00000000----|
Bb|-333333-|-111111-|-----11111111----|
Gb|-333333-|-222222-|-----00000000----|
Db|-333333-|-222222-|-----22222222----|
Ab|-111111-|-000000-|-----33333333----|
Eb|--------|--------|-----------------|
GTR II
eb|------8-|----10-8|------13-13-13-13|
Bb|--6-8---|6-8-----|---11------------|
Gb|--------|--------|-10--------------|
Bb-Am        C
I    just want to say, please just stay with me

GTR I
    Bb	     Am		C
eb|-111111-|-000000-|-----00000000----|
Bb|-333333-|-111111-|-----11111111----|
Gb|-333333-|-222222-|-----00000000----|
Db|-333333-|-222222-|-----22222222----|
Ab|-111111-|-000000-|-----33333333----|
Eb|--------|--------|-----------------|
GTR II
eb|------8-|----10-8|------13-13-13-13|
Bb|--6-8---|6-8-----|---11-11-11-11-11|
Gb|--------|--------|-10--------------|
 Bb-Am     C
I    am not ashamed to be the same with you

GTR I
    Bb	    Am      Dm      Gm      Bb      C
eb|-11111-|-00000-|-11111-|-33333-|-11111-|-0000-|
Bb|-33333-|-11111-|-33333-|-33333-|-33333-|-1111-|
Gb|-33333-|-22222-|-22222-|-33333-|-33333-|-0000-|
Db|-33333-|-22222-|-00000-|-55555-|-33333-|-2222-|
Ab|-11111-|-00000-|-------|-55555-|-11111-|-3333-|
Eb|-------|-------|-------|-33333-|-------|------|
GTR II

eb|6-6-6-6|8-8-8-8|10-10-10-10|13-13-13-13|6-6-6-6|8-8-8-8|-13(4x)-|
Bb|6-6-6-6|8-8-8-8|10-10-10-10|11-11-11-11|6-6-6-6|8-8-8-8|--------|
Gb|-------|-------|-----------|-----------|-------|-------|--------|
Bb-Am  Dm-Gm Bb-C
I      I    I find myself in you

OUTRO
GTR I
eb|----------------------------------------------------------------|
Bb|----------------------------------------------------------------|
Gb|--5--6---8---10---5--5--6---8--10---5--5--6---8--10-------------|
Db|--5--5---9---10---5--5--5---9--10---5--5--5---9--10-------------|
Ab|----------------------------------------------------------------|
Eb|----------------------------------------------------------------|
GTR II
eb|--------------5-----------------5-----------------5--55555555---|
Bb|--5h6-5h6-5h6-6-----5h6-5h6-5h6-6-----5h6-5h6-5h6-6--66666666---|
Gb|55----------------55----------------55--------------------------|
Db|----------------------------------------------------------------|
Ab|----------------------------------------------------------------|
Eb|----------------------------------------------------------------|

---F----

|==========================================================================|
|==========================================================================|
|==========================================================================|

|==================================================|
|==================================================|
|						   |
|                   ALL WE NEED                    |
|						   |
|==================================================|
|==================================================|
INTRO

eb|----------------------------------------------------|
Bb|----------------------------------------------------|
Gb|-7-x-7----------------------------------------------|
Db|-7-x-7---4-x-4---9-x-9---7-x-7---5-x-5--------------|
Ab|-5-x-5---4-x-4---9-x-9---7-x-7---5-x-5--------------|
Eb|---------2-x-2---7-x-7---5-x-5---3-x-3--------------|
GTR I
   D              F#m              G                A
eb|------------------------------------------------------|
Bb|------------------------------------------------------|
Gb|-777777777--------------------------------------------|2x
Db|-777777777-----444444444-----555555555-----777777777--|
Ab|-555555555-----444444444-----555555555-----777777777--|
Eb|---------------222222222-----333333333-----555555555--|
GTR II
eb|----10--|
Bb|-12-----|
Gb|--------|
Db|--------|
Ab|--------|
Eb|--------|

ROGEM - gawin nyo 2 sa bawat chords ha
GTR II
  RIFF 1  D repeat 2x||RIFFF 2 F#m rep.2x ||RIFF 3 G rep.2x ||RIFF 4
A         ||
eb|------------------||-------------------||----------------||---101010---10-8s10||
Bb|---------10-10-10-||---------10-10-10--||-------10-10-10-||888------888-------||
Gb|------------------||-------------------||----------------||-------------------||
Db|-12-12-12---------||-11-11-11----------||----------------||-------------------||
Ab|------------------||-------------------||-9-9-9----------||-------------------||
Eb|------------------||-------------------||----------------||-------------------||

VERSE
GTR I
   D              F#m              G                A
eb|------------------------------------------------------|
Bb|------------------------------------------------------|
Gb|-777777777--------------------------------------------|2x
Db|-777777777-----444444444-----555555555-----777777777--|
Ab|-555555555-----444444444-----555555555-----777777777--|
Eb|---------------222222222-----333333333-----555555555--|

Been turning a blind eye for the longest time
Still I see where this is headed
And my mind is going should I risk it?

Its all been said and done before
Honestly Im out of patience
For anymore of your excuses

REFRAIN
GTR I
   G           A          Bm         A    G       A
eb|-----------------------------------------------------|
Bb|-----------------------------------------------------|
Gb|-----------------------444444444---------------------|
Db|-555555555--777777777--444444444--7777-555555-77777\-|
Ab|-555555555--777777777--222222222--7777-555555-77777\-|
Eb|-333333333--555555555-------------5555-333333-55555\-|
G
Kicking and screaming inside lies a feeling
A
One lowly voice against a backdrop of noise
Bm
Am I on my own
A                   G  A
Tonight ill let you know

CHORUS

GTR I
   D              A             Bm               G
eb|------------------------------------------------------|
Bb|------------------------------------------------------|
Gb|-777777777-------------------444444444----------------|
Db|-777777777-----777777777-----444444444-----555555555--|
Ab|-555555555-----777777777-----222222222-----555555555--|
Eb|---------------555555555-------------------333333333--|
GTR II
   D              A             Bm               G
eb|------------------------------------------------------|
Bb|------------------------------------------------------|
Gb|-777777777-----999999999-----11-11-11-11---12-12-12-12|
Db|-xxxxxxxxx-----xxxxxxxxx------x--x--x--x----x--x--x--x|
Ab|-555555555-----777777777------9--9--9--9---10-10-10-10|
Eb|------------------------------------------------------|
D
I light the fire for those of us who wept
A                              Bm
for all the heartache that we felt and this is all we need
G
This is all I need

GTR I
   D            F#m          Bm         A         G      A
eb|--------------------------------------------------------------|
Bb|--------------------------------------------------------------|
Gb|-777777777----------------------------------------------------|
Db|-777777777--444444444-----999999999--777777777-555555-777777--|
Ab|-555555555--444444444-----999999999--777777777-555555-777777--|
Eb|------------222222222-----777777777--555555555-333333-555555--|
ROGEM - > ung GTR II STRUMMING UN HA
GTR II
   D           F#m          Bm           A        G      A
eb|--------------------------------------------------------------|
Bb|--------------------------------------------------------------|
Gb|-7----------11-----------16----------14-------12-----14-------|
Db|-x-----------x------------x-----------x--------x------x-------|
Ab|-5-----------9------------9----------12-------10-----10-------|
Eb|--------------------------------------------------------------|
D                            F#m
I sing along with each and everyone beneath the sorrow lies
Bm              A                 G                    A
Someone whos reaching out for a hand whos reaching too

VERSE II
GTR I
   D              F#m              G                A
eb|------------------------------------------------------|
Bb|------------------------------------------------------|
Gb|-777777777--------------------------------------------|2x
Db|-777777777-----444444444-----555555555-----777777777--|
Ab|-555555555-----444444444-----555555555-----777777777--|
Eb|---------------222222222-----333333333-----555555555--|
A common tale if truth be told
Familiar as it seems
My story lies between

REFRAIN

GTR I
   G           A          Bm         A          G       A
eb|----------------------------------------------------------|
Bb|----------------------------------------------------------|
Gb|-----------------------444444444--------------------------|
Db|-555555555--777777777--444444444--777777777-555555-77777\-|
Ab|-555555555--777777777--222222222--777777777-555555-77777\-|
Eb|-333333333--555555555-------------555555555-333333-55555\-|
G
Silent and seamless the sound of my weakness
A
Is drowned on the noise of a world with no voice
Bm
And I take it all
A                       G   A
TOnight the night will know


CHORUS

GTR I
   D              A             Bm               G
eb|------------------------------------------------------|
Bb|------------------------------------------------------|
Gb|-777777777-------------------444444444----------------|
Db|-777777777-----777777777-----444444444-----555555555--|
Ab|-555555555-----777777777-----222222222-----555555555--|
Eb|---------------555555555-------------------333333333--|
GTR II
   D              A             Bm               G
eb|------------------------------------------------------|
Bb|------------------------------------------------------|
Gb|-777777777-----999999999-----11-11-11-11---12-12-12-12|
Db|-xxxxxxxxx-----xxxxxxxxx------x--x--x--x----x--x--x--x|
Ab|-555555555-----777777777------9--9--9--9---10-10-10-10|
Eb|------------------------------------------------------|
D
I light the fire for those of us who wept
A                              Bm
for all the heartache that we felt and this is all we need
G
This is all I need

GTR I
   D            F#m          Bm     A     G      A	G    A
eb|--------------------------------------------------------------|
Bb|--------------------------------------------------------------|
Gb|-777777777----------------------------------------------------|
Db|-777777777--444444444-----99999--77777-555555-777777-5555-7777|
Ab|-555555555--444444444-----99999--77777-555555-777777-5555-7777|
Eb|------------222222222-----77777--55555-333333-555555-3333-5555|
ROGEM - > ung GTR II STRUMMING UN HA
GTR II
   D           F#m          Bm      A     G      A
eb|--------------------------------------------------------------|
Bb|--------------------------------------------------------------|
Gb|-7----------11-----------16------14---12-----14------12---14--|
Db|-x-----------x------------x-------x----x------x-------x----x--|
Ab|-5-----------9------------9------12---10-----10------10---10--|
Eb|--------------------------------------------------------------|
D                            F#m
I sing along with each and everyone beneath the sorrow lies
Bm              A                 G                    A
Someone whos reaching out for a hand whos reaching too
G     A
Too

BRIDGE
GTR I
eb|----------|----------|----------|----------|
Bb|----------|----------|----------|----------|
Gb|--7~~~~~x-|---6~~~~~x|---4~~~~~x|----------|
Db|--7~~~~~x-|---7~~~~~x|---4~~~~~x|-5555555--|
Ab|--5~~~~~x-|---4~~~~~x|---2~~~~~x|-5555555--|
Eb|----------|----------|----------|-3333333--|
D (pause)
Take flight when the nightlight's out of sight
D/Db (pause)
Take flight just go and take the night
Bm (pause)
Take flight as we share this drink tonight
G
Take flight its our fight I fight tonight

GTR I
eb|-------------|-------------|------------|------------|
Bb|-------------|-------------|------------|------------|
Gb|--777777777--|--6666666666-|---44444444-|------------|
Db|--777777777--|--7777777777-|---44444444-|-5555555555-|
Ab|--555555555--|--4444444444-|---22222222-|-5555555555-|
Eb|-------------|-------------|------------|-3333333333-|
GTR II
eb|-------------|-------------|------------|------------|
Bb|-------------|-------------|------------|------------|
Gb|---222---222-|---222---222-|---222---222|---777---777|
Db|-------------|-------------|------------|555---555---|
Ab|555---555----|444---444----|222---222---|------------|
Eb|-------------|-------------|------------|------------|
D
Take flight when the nightlight's out of sight
D/Db
Take flight just go and take the night
Bm
Take flight as we share this drink tonight
G
Take flight its our fight I fight tonight

GTR I
eb|-------------|-------------|------------|------------|
Bb|-------------|-------------|------------|------------|
Gb|--777777777--|--6666666666-|---44444444-|------------|
Db|--777777777--|--7777777777-|---44444444-|-5555555555-|
Ab|--555555555--|--4444444444-|---22222222-|-5555555555-|
Eb|-------------|-------------|------------|-3333333333-|
GTR II
eb|-------------|-------------|------------|------------|
Bb|-------------|-------------|------------|------------|
Gb|---222---222-|---222---222-|---222---222|---777---777|
Db|-------------|-------------|------------|555---555---|
Ab|555---555----|444---444----|222---222---|------------|
Eb|-------------|-------------|------------|------------|
D
Take flight when the nightlight's out of sight
D/Db
Take flight just go and take the night
Bm
Take flight as we share this drink tonight
G
Take flight its our fight I fight tonight

REFRAIN
GTR I
   G           A          Bm         A    G       A
eb|-----------------------------------------------------|
Bb|-----------------------------------------------------|
Gb|-----------------------444444444---------------------|
Db|-555555555--777777777--444444444--7777-555555-77777\-|
Ab|-555555555--777777777--222222222--7777-555555-77777\-|
Eb|-333333333--555555555-------------5555-333333-55555\-|
G
Kicking and screaming inside lies a feeling
A
One lowly voice against a backdrop of noise
Bm
Am I on my own
A                   G  A
Tonight ill let you know

HORUS

GTR I
   D              A             Bm               G
eb|------------------------------------------------------|
Bb|------------------------------------------------------|
Gb|-777777777-------------------444444444----------------|
Db|-777777777-----777777777-----444444444-----555555555--|
Ab|-555555555-----777777777-----222222222-----555555555--|
Eb|---------------555555555-------------------333333333--|
GTR II
   D              A             Bm               G
eb|------------------------------------------------------|
Bb|------------------------------------------------------|
Gb|-777777777-----999999999-----11-11-11-11---12-12-12-12|
Db|-xxxxxxxxx-----xxxxxxxxx------x--x--x--x----x--x--x--x|
Ab|-555555555-----777777777------9--9--9--9---10-10-10-10|
Eb|------------------------------------------------------|
D
I light the fire for those of us who wept
A                              Bm
for all the heartache that we felt and this is all we need
G
This is all I need

GTR I
   D            F#m          Bm         A         G      A
eb|--------------------------------------------------------------|
Bb|--------------------------------------------------------------|
Gb|-777777777----------------------------------------------------|
Db|-777777777--444444444-----999999999--777777777-555555-777777--|
Ab|-555555555--444444444-----999999999--777777777-555555-777777--|
Eb|------------222222222-----777777777--555555555-333333-555555--|
ROGEM - > ung GTR II STRUMMING UN HA
GTR II
   D           F#m          Bm           A        G      A
eb|--------------------------------------------------------------|
Bb|--------------------------------------------------------------|
Gb|-7----------11-----------16----------14-------12-----14-------|
Db|-x-----------x------------x-----------x--------x------x-------|
Ab|-5-----------9------------9----------12-------10-----10-------|
Eb|--------------------------------------------------------------|
D                            F#m
I sing along with each and everyone beneath the sorrow lies
Bm              A                 G                    A
Someone whos reaching out for a hand whos reaching too

D   D/Db Bm G (2x)
   You

END WITH G..

|==========================================================================|
|==========================================================================|
|==========================================================================|

|==================================================|
|==================================================|
|						   |
|                    NOCTURNE                      |
|						   |
|==================================================|
|==================================================|

ROGEM - > d2 sa song na 2 parang gumamit cla ng D chord na ginagamit
	  ung string na Ab ung D chord na un madalas gamitin sa
	  jazz nilagay ko ung formation ng chord na un qng di
	  kyo comfortable s formation ng mga chords na ginamit
          ko pwd naman kyo ng Basic chords..

ROGEM - > sa pagka2rinig ko parang medyo may trick din ung pag
          Strum nila d2 may narinig ako na first strum sa isang
	  chord na di nya pinatamaan ung eb na string tapos 2nd
          strike sa chord na un sinama nya na ung eb. pero di ko
          na pi-nost un kc baka malito kyo hehehe..

ROGEM - >(*Tip*)lang ha baka makatulong strum nyo ung mga chord using
         ur fingers only wag kyo mag pick try noy lang baka maka2long


   CHORD D
eb|-x------------|
Bb|-3--------7---|
Gb|-2---or---7---|
Db|-4--------7---|
Ab|-5--------9---|
Eb|-x-------10---|

eb|-------------------------------------------------------|
Bb|-------------------------------------------------------|
Gb|-------------------------------------------------------|
Db|-------------------------------------------------------|
Ab|-------------------------------------------------------|
Eb|-------------------------------------------------------|


VERSE
    D             DM7           D7	      G
eb|-x-2-2-2-2-2---x-x-x-x-x-x---2-2-2-2-2-2---3-3-3-3-3-3-|
Bb|-3-3-3-3-3-3---7-7-7-7-7-7---1-1-1-1-1-1---3-3-3-3-3-3-|
Gb|-2-2-2-2-2-2---6-6-6-6-6-6---2-2-2-2-2-2---4-4-4-4-4-4-|
Db|-4-4-4-4-4-4---7-7-7-7-7-7---0-0-0-0-0-0---5-5-5-5-5-5-|
Ab|-5-5-5-5-5-5---5-5-5-5-5-5-----------------5-5-5-5-5-5-|
Eb|-x-----------------------------------------3-3-3-3-3-3-|
D                    DM7
Laid my head on the pillow
                       D7
Watched the night go by
                        G
Watched the checkered pillowcases come alive

    D             DM7           D7	      G
eb|-x-2-2-2-2-2---x-x-x-x-x-x---2-2-2-2-2-2---3-3-3-3-3-3-|
Bb|-3-3-3-3-3-3---7-7-7-7-7-7---1-1-1-1-1-1---3-3-3-3-3-3-|
Gb|-2-2-2-2-2-2---6-6-6-6-6-6---2-2-2-2-2-2---4-4-4-4-4-4-|
Db|-4-4-4-4-4-4---7-7-7-7-7-7---0-0-0-0-0-0---5-5-5-5-5-5-|
Ab|-5-5-5-5-5-5---5-5-5-5-5-5-----------------5-5-5-5-5-5-|
Eb|-x-----------------------------------------3-3-3-3-3-3-|
D                  DM7
Silence croons me slowly
                     D7
And I wonder how you are
                    G
Are you sleeping soundly
    		Gm
eb|-----------3-3-3-3-3-3---------------------------------|
Bb|-----------3-3-3-3-3-3---------------------------------|
Gb|-----------3-3-3-3-3-3---------------------------------|
Db|-----------5-5-5-5-5-5---------------------------------|
Ab|-----------5-5-5-5-5-5---------------------------------|
Eb|-----------3-3-3-3-3-3---------------------------------|
                        Gm
You don't quite feel as far

ROGEM - > d2 sa chorus pakingan nyo ung formation ng strumming ha

CHORUS
    D             D7	        G             Gm
eb|-2-2-2-2-2-2---2-2-x-x-x-x---3-3-3-3-3-3---3-3-3-3-3-3|
Bb|-3-3-3-3-3-3---1-1-7-7-7-7---3-3-3-3-3-3---3-3-3-3-3-3|
Gb|-2-2-2-2-2-2---2-2-5-5-5-5---4-4-4-4-4-4---3-3-3-3-3-3|
Db|---------------0-0-7-7-7-7---5-5-5-5-5-5---5-5-5-5-5-5|
Ab|-------------------5-5-5-5---5-5-5-5-5-5---5-5-5-5-5-5|
Eb|-x---------------------------3-3-3-3-3-3---3-3-3-3-3-3|
D
Saw your name written on the ceiling
D7                     G		    Gm
Not sure if I'm still dreaming of you I've seen you
   	D
eb|-----2----------------------------------|
Bb|-----3----------------------------------|
Gb|-----2----------------------------------|
Db|----------------------------------------|
Ab|----------------------------------------|
Eb|----------------------------=-----------|
        D
in my sleep


VERSE II

    D             DM7           D7	      G
eb|-x-2-2-2-2-2---x-x-x-x-x-x---2-2-2-2-2-2---3-3-3-3-3-3-|
Bb|-3-3-3-3-3-3---7-7-7-7-7-7---1-1-1-1-1-1---3-3-3-3-3-3-|
Gb|-2-2-2-2-2-2---6-6-6-6-6-6---2-2-2-2-2-2---4-4-4-4-4-4-|
Db|-4-4-4-4-4-4---7-7-7-7-7-7---0-0-0-0-0-0---5-5-5-5-5-5-|
Ab|-5-5-5-5-5-5---5-5-5-5-5-5-----------------5-5-5-5-5-5-|
Eb|-x-----------------------------------------3-3-3-3-3-3-|
From across the room the clock leers
As I try to sleep again
I would rather shorten the night
Than lengthen the day

    D             DM7           D7	      G
eb|-x-2-2-2-2-2---x-x-x-x-x-x---2-2-2-2-2-2---3-3-3-3-3-3-|
Bb|-3-3-3-3-3-3---7-7-7-7-7-7---1-1-1-1-1-1---3-3-3-3-3-3-|
Gb|-2-2-2-2-2-2---6-6-6-6-6-6---2-2-2-2-2-2---4-4-4-4-4-4-|
Db|-4-4-4-4-4-4---7-7-7-7-7-7---0-0-0-0-0-0---5-5-5-5-5-5-|
Ab|-5-5-5-5-5-5---5-5-5-5-5-5-----------------5-5-5-5-5-5-|
Eb|-x-----------------------------------------3-3-3-3-3-3-|
    D   DM7            D7      G
In sleep we lose half our self

GTR I
    		Gm
eb|-----------3-3-3-3-3-3---------------------------------|
Bb|-----------3-3-3-3-3-3---------------------------------|
Gb|-----------3-3-3-3-3-3---------------------------------|
Db|-----------5-5-5-5-5-5---------------------------------|
Ab|-----------5-5-5-5-5-5---------------------------------|
Eb|-----------3-3-3-3-3-3---------------------------------|
GTR II
		Gm
eb|-----------17--15--14--15--17--------------------------|
Bb|-------------------------------------------------------|
Gb|-------------------------------------------------------|
Gm
I would rather spend it dreaming of you

CHORUS
    D             D7	        G             Gm
eb|-2-2-2-2-2-2---2-2-x-x-x-x---3-3-3-3-3-3---3-3-3-3-3-3|
Bb|-3-3-3-3-3-3---1-1-7-7-7-7---3-3-3-3-3-3---3-3-3-3-3-3|
Gb|-2-2-2-2-2-2---2-2-5-5-5-5---4-4-4-4-4-4---3-3-3-3-3-3|
Db|---------------0-0-7-7-7-7---5-5-5-5-5-5---5-5-5-5-5-5|
Ab|-------------------5-5-5-5---5-5-5-5-5-5---5-5-5-5-5-5|
Eb|-x---------------------------3-3-3-3-3-3---3-3-3-3-3-3|
D
Saw your name written on the ceiling
D7                     G
Not sure if I'm still dreaming of you
      Gm
I've seen you in my sleep

REPEAT 2x di kasali last line

     Gm              F#m
Ive seen you in my sleep


INTERLUDE

ROGEM - > para d2 naman sa outro pakingan nyo lang sa audio para
	  sa ryt timing ng lead solo nya pati ung timing ng GTR I
GTR I
    F#m Am F#m Dm-G

GTR II SOlo

eb|------5---7---5---8p5-----------5---7---5---8p5-----------|
Bb|--5-----5---5---5-----5-----5-----5---5---5-----5---------|
Gb|5---5---------------------5---5---------------------------|
Db|----------------------------------------------------------|
Ab|----------------------------------------------------------|
Eb|----------------------------------------------------------|

eb|------4---6---4---7p4-----------4----6---4----7p4---------|
Bb|--4-----4---4---4-----4-----4------4---4---4------4-------|
Gb|5---5---------------------5---5---------------------------|
Db|----------------------------------------------------------|
Ab|----------------------------------------------------------|
Eb|----------------------------------------------------------|

eb|------5---7--8----10-----------5---7---8---10---8---7-5---|
Bb|--5-----5------5-----------5-5---5---5---5----5---5-------|
Gb|5---5------5-------------5--------------------------------|
Db|----------------------------------------------------------|
Ab|----------------------------------------------------------|
Eb|----------------------------------------------------------|


CHORUS
    D             D7	        G             Gm
eb|-2-2-2-2-2-2---2-2-x-x-x-x---3-3-3-3-3-3---3-3-3-3-3-3|
Bb|-3-3-3-3-3-3---1-1-7-7-7-7---3-3-3-3-3-3---3-3-3-3-3-3|
Gb|-2-2-2-2-2-2---2-2-5-5-5-5---4-4-4-4-4-4---3-3-3-3-3-3|
Db|---------------0-0-7-7-7-7---5-5-5-5-5-5---5-5-5-5-5-5|
Ab|-------------------5-5-5-5---5-5-5-5-5-5---5-5-5-5-5-5|
Eb|-x---------------------------3-3-3-3-3-3---3-3-3-3-3-3|
D
Saw your name written on the ceiling
D7                     G
Not sure if I'm still dreaming of you
      Gm
I've seen you in my sleep

    D             D7	        G             Gm
eb|-2-2-2-2-2-2---2-2-x-x-x-x---3-3-3-3-3-3---3-3-3-3-3-3|
Bb|-3-3-3-3-3-3---1-1-7-7-7-7---3-3-3-3-3-3---3-3-3-3-3-3|
Gb|-2-2-2-2-2-2---2-2-5-5-5-5---4-4-4-4-4-4---3-3-3-3-3-3|
Db|---------------0-0-7-7-7-7---5-5-5-5-5-5---5-5-5-5-5-5|
Ab|-------------------5-5-5-5---5-5-5-5-5-5---5-5-5-5-5-5|
Eb|-x---------------------------3-3-3-3-3-3---3-3-3-3-3-3|
D
Saw your name written on the ceiling
D7                     G
Not sure if I'm still dreaming of you

      Gm
I've seen you in my sleep ( repeat 4x ) then last chord "D"


|==========================================================================|
|==========================================================================|
|==========================================================================|

|==================================================|
|==================================================|
|						   |
|                    PASUBALI                      |
|						   |
|==================================================|
|==================================================|

ROGEM - > d2 ginawa ko 2ng tab na to qng papano q 2 tugtugin
	  pero qng di kyo satisfy o di nyo nagustuhan kung
	  pano ko iplay ung song pwd nyo gamitin ung basic chords
	  nalang nakalagay naman ung mga chords

ROGEM - >

INTRO

eb|---------------------------------------------------|
Bb|---------------------------------------------------|
Gb|-44444444-/88888888-----------4---4-6-3---3-4------|
Db|-44444444-/88888888-66666666\---6-------4----------|
Ab|-22222222-/66666666-66666666\----------------------|
Eb|--------------------44444444\----------------------|

GTR I
eb|-------------|------------|------------|--------------|
Bb|-------------|------------|------------|--------------|
Gb|---44444444--|--88888888--|------------|--------------|
Db|---44444444--|--88888888--|--66666666--|--55555555----|
Ab|---22222222--|--66666666--|--66666666--|--55555555----|
Eb|-------------|------------|--44444444--|--33333333----|
GTR II
eb|-------------|------------|------------|--------------|
Bb|-------------|------------|------------|--------------|
Gb|-------------|------------|------------|--------------|
Db|-------------|------------|------------|--------------|
Ab|-/66-44-22-44|-66-44-22-44|-66-44-22-44|-66-44-22-44--|
Eb|-------------|------------|------------|--------------|


GTR I
eb|-------------|------------|------------|--------------|
Bb|-------------|------------|------------|--------------|
Gb|---44444444--|--88888888--|------------|-444-444444---|
Db|---44444444--|--88888888--|--66666666--|-444-333333---|
Ab|---22222222--|--66666666--|--66666666--|-222-111111---|
Eb|-------------|------------|--44444444--|--------------|
Guitar 2:
eb|-----------------------------------------------------------------------|
Bb|-----------------------------------------------------------------------|
Gb|-11-11-99-88-99--11-11-99-88-99--11-11-99-88-99-11-11-99-88-99-11-11---|
Db|-----------------------------------------------------------------------|
Ab|-/9--9-77-66-77---9--9-77-66-77--9--9--77-66-77--9--9-77-66-77--9-9----|
Eb|-----------------------------------------------------------------------|


VERSE

eb|-7-7-7-7-7-7--6-6-6-6-6-6--0-0-0-0-0-0--2-2--2-2--------------|
Bb|-7-7-7-7-7-7--7-7-7-7-7-7--0-0-0-0-0-0--2-2--4-4--------------|
Gb|-8-8-8-8-8-8--8-8-8-8-8-8--1-1-1-1-1-1--4-4--4-4--------------|
Db|-9-9-9-9-9-9--8-8-8-8-8-8--2-2-2-2-2-2--4-4--4-4--------------|
Ab|-9-9-9-9-9-9--6-6-6-6-6-6--2-2-2-2-2-2--2-2--2-2--------------|
Eb|-7-7-7-7-7-7---------------0-0-0-0-0-0------------------------|

B                                  Ebm
Kung pwede lang  wag mo na 'tong iwasan
     E                      B9-B
At -wag mo ring ituring na biro
B                        Ebm
marahil 'to'y 'di mo inaasahan
     E                      B9-B
pero sana'y 'wag ipinid ang pinto

REFRAIN
    G#m     F#      E
eb|----------------------------------------|
Bb|----------------------------------------|
Gb|----------------------------------------|
Db|--6~6----4-4-4---2-2-2-2-2-2-2----------|
Ab|--6-6----4-4-4---2-2-2-2-2-2-2----------|
Eb|--4-4----2-2-2---0-0-0-0-0-0-0----------|
G#m         F#
Itikom ang bibig
E
Mata'y ibaling sa 'kin

    G#m     F#      E              E
eb|-----------------------------------------------|
Bb|-----------------------------------------------|
Gb|--------------------------------x-x-x-x-x-x-x--|
Db|--6~6----4-4-4---2-2-2-2-2-2-2--9-9-9-9-9-9-9--|
Ab|--6-6----4-4-4---2-2-2-2-2-2-2--7-7-7-7-7-7-7--|
Eb|--4-4----2-2-2---0-0-0-0-0-0-0-----------------|
G#m               F#        E
Pakinggan mo ang sasabihin ko

CHORUS
    B            Ebm          G#m          G
eb|--------------------------------------------------------|
Bb|----------------------------------------3-3-3-3-3-3-----|
Gb|--------------8-8-8-8-8-8---------------4-4-4-4-4-4-----|
Db|-9-9-9-9-9-9--8-8-8-8-8-8--6-6-6-6-6-6--5-5-5-5-5-5-----|
Ab|-9-9-9-9-9-9--6-6-6-6-6-6--6-6-6-6-6-6--5-5-5-5-5-5-----|
Eb|-7-7-7-7-7-7---------------4-4-4-4-4-4------------------|
B
Kailan mo ba matututunan?
Ebm
kailan mo ba 'pagsisigawang
G#m                     G
Di mo na 'pagkakailang tayo

    B            Ebm          G#m         B     C#m   Bb
eb|--------------------------------------------------------|
Bb|--------------------------------------------------------|
Gb|--------------8-8-8-8-8-8--------------4-4-/-6----\-3-3-|
Db|-9-9-9-9-9-9--8-8-8-8-8-8--6-6-6-6-6-6-4-4-/-6----\-3-3-|
Ab|-9-9-9-9-9-9--6-6-6-6-6-6--6-6-6-6-6-6-2-2-/-4----\-1-1-|
Eb|-7-7-7-7-7-7---------------4-4-4-4-4-4------------------|
B
Kay rami nang pinagdaanan
Eb
Ano pa bang 'yong kailangan?
G#m                      B C#m-Bb
Nagsusumamo na sabihin mo

INTERLUDE
GTR I

eb|-7-7-7-7-7-7--6-6-6-6-6-6--0-0-0-0-0-0--2-2--2-2--------|
Bb|-7-7-7-7-7-7--7-7-7-7-7-7--0-0-0-0-0-0--2-2--4-4--------|
Gb|-8-8-8-8-8-8--8-8-8-8-8-8--1-1-1-1-1-1--4-4--4-4--------|
Db|-9-9-9-9-9-9--8-8-8-8-8-8--2-2-2-2-2-2--4-4--4-4--------|
Ab|-9-9-9-9-9-9--6-6-6-6-6-6--2-2-2-2-2-2--2-2--2-2--------|
Eb|-7-7-7-7-7-7---------------0-0-0-0-0-0------------------|

GTR II
eb|-2------------2------------2----------4-----------------|
Bb|----4------------4-------------4------------5---4--4----|
Gb|--------------------------------------------------------|
Db|--------------------------------------------------------|
Ab|--------------------------------------------------------|
Eb|--------------------------------------------------------|

VERSE
GTR I
    B		    Ebm             E              Bm   B
eb|-7-7-7-7-7-7-----6-6-6-6-6-6-----0-0-0-0-0-0----2-2--2-2|
Bb|-7-7-7-7-7-7-----7-7-7-7-7-7-----0-0-0-0-0-0----2-2--4-4|
Gb|-8-8-8-8-8-8-----8-8-8-8-8-8-----1-1-1-1-1-1----4-4--4-4|2x
Db|-9-9-9-9-9-9-----8-8-8-8-8-8-----2-2-2-2-2-2----4-4--4-4|
Ab|-9-9-9-9-9-9-----6-6-6-6-6-6-----2-2-2-2-2-2----2-2--2-2|
Eb|-7-7-7-7-7-7---------------------0-0-0-0-0-0------------|
GTR II
eb|7-7-7-7-7-7-7-7-6-6-6-6-6-6-6-6-x-x-x-x-x-x-x-x---------|
Bb|7-7-7-7-7-7-7-7-7-7-7-7-7-7-7-7-5-5-5-5-5-5-5-5---5-4-4-|
Gb|8-8-8-8-8-8-8-8-8-8-8-8-8-8-8-8-4-4-4-4-4-4-4-4---------|
Db|--------------------------------2-2-2-2-2-2-2-2---------|2x
Ab|--------------------------------------------------------|
Eb|--------------------------------------------------------|
B                     Ebm
Ang diwa ko'y tigib sa kakaisip
  E                       Bm-B
Sa sarili'y laging may kinikimkim
B                     Ebm
Patuloy lamang bang mananaginip
  E                       Bm-B
At mananatili lang na nakapikit

REFRAIN
    G#m     F#      E
eb|----------------------------------------|
Bb|----------------------------------------|
Gb|----------------------------------------|
Db|--6~6----4-4-4---2-2-2-2-2-2-2----------|
Ab|--6-6----4-4-4---2-2-2-2-2-2-2----------|
Eb|--4-4----2-2-2---0-0-0-0-0-0-0----------|
G#m         F#
Akoy mayrong batid
E
Itoy iyong pag amin

    G#m     F#      E              E
eb|-----------------------------------------------|
Bb|-----------------------------------------------|
Gb|--------------------------------x-x-x-x-x-x-x--|
Db|--6~6----4-4-4---2-2-2-2-2-2-2--9-9-9-9-9-9-9--|
Ab|--6-6----4-4-4---2-2-2-2-2-2-2--7-7-7-7-7-7-7--|
Eb|--4-4----2-2-2---0-0-0-0-0-0-0-----------------|
G#m              F#        E
Hindi na natin maiiwasan to


CHORUS
    B            Ebm          G#m          G
eb|--------------------------------------------------------|
Bb|----------------------------------------3-3-3-3-3-3-----|
Gb|--------------8-8-8-8-8-8---------------4-4-4-4-4-4-----|
Db|-9-9-9-9-9-9--8-8-8-8-8-8--6-6-6-6-6-6--5-5-5-5-5-5-----|
Ab|-9-9-9-9-9-9--6-6-6-6-6-6--6-6-6-6-6-6--5-5-5-5-5-5-----|
Eb|-7-7-7-7-7-7---------------4-4-4-4-4-4------------------|
B
Kailan mo ba matututunan
Eb
kailan mo ba 'pagsisigawang
G#m                     G
Di mo na 'pagkakailang tayo


    B            Ebm          G#m         B     C#m   Bb
eb|--------------------------------------------------------|
Bb|--------------------------------------------------------|
Gb|--------------8-8-8-8-8-8--------------4-4-/-6----\-3-3-|
Db|-9-9-9-9-9-9--8-8-8-8-8-8--6-6-6-6-6-6-4-4-/-6----\-3-3-|
Ab|-9-9-9-9-9-9--6-6-6-6-6-6--6-6-6-6-6-6-2-2-/-4----\-1-1-|
Eb|-7-7-7-7-7-7---------------4-4-4-4-4-4------------------|
B
Kay rami nang pinagdaanan
Eb
Ano pa bang 'yong kailangan?
G#m                      B C#m-Bb
Nagsusumamo na sabihin mo

REFRAIN
    G#m     F#      E
eb|----------------------------------------|
Bb|----------------------------------------|
Gb|----------------------------------------|
Db|--6~6----4-4-4---2-2-2-2-2-2-2----------|
Ab|--6-6----4-4-4---2-2-2-2-2-2-2----------|
Eb|--4-4----2-2-2---0-0-0-0-0-0-0----------|
G#m         F#
Akoy mayrong batid
E
Itoy iyong pag amin

    G#m     F#      E              E
eb|-----------------------------------------------|
Bb|-----------------------------------------------|
Gb|--------------------------------x-x-x-x-x-x-x--|
Db|--6~6----4-4-4---2-2-2-2-2-2-2--9-9-9-9-9-9-9--|
Ab|--6-6----4-4-4---2-2-2-2-2-2-2--7-7-7-7-7-7-7--|
Eb|--4-4----2-2-2---0-0-0-0-0-0-0-----------------|
G#m              F#        E
Hindi na natin maiiwasan to

Interlude
GTR II
   F#       G        G#m      G
eb|------------------------------------------------|
Bb|--------0--------0--------0--------0-0----------|
Gb|------------------------------------------------| 3x
Db|-----4--------5--------6--------5------5--------|
Ab|---4--------5--------6--------5-----------------|
Eb|-2--------3--------4--------3-------------------|

GTR I papasok 2 sa 3rd Round ng INterlude
eb|------------------------------------------------------|
Bb|------------------------------------------------------|
Gb|------------------------------------------------------|
Db|44444444--55555555-66666666-55555555-5-5-5-5-5-5-5-5--|
Ab|44444444--55555555-66666666-55555555-5-5-5-5-5-5-5-5--|
Eb|22222222--33333333-44444444-33333333-3-3-3-3-3-3-3-3--|

eb|-------------------------------------------------------|
Bb|-------------------------------------------------------|
Gb|-------------------------------------------------------|
Db|-------------------------------------------------------|
Ab|--2-/7\------------------------------------------------|
Eb|-------------------------------------------------------|
   naiintindihan mo Ba?....


CHORUS
    B            Ebm          G#m          G
eb|--------------------------------------------------------|
Bb|----------------------------------------3-3-3-3-3-3-----|
Gb|--------------8-8-8-8-8-8---------------4-4-4-4-4-4-----|
Db|-9-9-9-9-9-9--8-8-8-8-8-8--6-6-6-6-6-6--5-5-5-5-5-5-----|
Ab|-9-9-9-9-9-9--6-6-6-6-6-6--6-6-6-6-6-6--5-5-5-5-5-5-----|
Eb|-7-7-7-7-7-7---------------4-4-4-4-4-4------------------|
B
Kailan mo ba matututunan?
Eb
kailan mo ba 'pagsisigawang
G#m                     G
Di mo na 'pagkakailang tayo?

    B            Ebm          G#m         B     C#m   Bb
eb|--------------------------------------------------------|
Bb|--------------------------------------------------------|
Gb|--------------8-8-8-8-8-8--------------4-4-/-6----\-3-3-|
Db|-9-9-9-9-9-9--8-8-8-8-8-8--6-6-6-6-6-6-4-4-/-6----\-3-3-|
Ab|-9-9-9-9-9-9--6-6-6-6-6-6--6-6-6-6-6-6-2-2-/-4----\-1-1-|
Eb|-7-7-7-7-7-7---------------4-4-4-4-4-4------------------|
B
Kay rami nang pinagdaanan
Eb
Ano pa bang 'yong kailangan?
G#m                      B C#m-Bb
Nagsusumamo na sabihin mo

OUTRO
GTR I
eb|-------------|------------|------------|--------------|
Bb|-------------|------------|------------|--------------|
Gb|---44444444--|--88888888--|------------|-444-444444---|
Db|---44444444--|--88888888--|--66666666--|-444-333333---|
Ab|---22222222--|--66666666--|--66666666--|-222-111111---|
Eb|-------------|------------|--44444444--|--------------|
GTR II
eb|-----------------------------------------------------------------------|
Bb|-----------------------------------------------------------------------|
Gb|-11-11-99-88-99--11-11-99-88-99--11-11-99-88-99-11-11-99-88-99-11-11---|
Db|-----------------------------------------------------------------------|
Ab|-/9--9-77-66-77---9--9-77-66-77--9--9--77-66-77--9--9-77-66-77--9-9----|
Eb|-----------------------------------------------------------------------|

eb|---------------------------------------------------|
Bb|---------------------------------------------------|
Gb|-44444444-/88888888-----------4---4-6-3---3-4------|
Db|-44444444-/88888888-66666666\---6-------4----------|
Ab|-22222222-/66666666-66666666\----------------------|
Eb|--------------------44444444\----------------------|

|==========================================================================|
|==========================================================================|
|==========================================================================|

|==================================================|
|==================================================|
|						   |
|                     HARAPIN                      |
|						   |
|==================================================|
|==================================================|


ROGEM - >  pwd nyo gamitin khit anu sa dalawa na c formation sa verse 1
           land ha uulitin ko sa verse 1 lang

eb|--3-3-3-------3-3-3-------------------|
Bb|--1-1-1-------5-5-5-------------------|
Gb|--0-0-0---or--5-5-5-------------------|
Db|--2-2-2-------5-5-5-------------------|
Ab|--3-3-3-------3-3-3-------------------|
Eb|--------------------------------------|

INTRO

eb|-0-0-0-0-0-0-0-0-0-0-0-0-0-0------------|
Bb|-1-1-1-1-1-1-1-1-1-1-1-1-1-1------------|
Gb|-0-0-0-0-0-0-0-0-0-0-0-0-0-0------------|
Db|-2-2-2-2-2-2-2-2-2-2-2-2-2-2------------|
Ab|-3-3-3-3-3-3-3-3-3-3-3-3-3-3------------|
Eb|----------------------------------------|

VERSE I

    C       G	    D     D9       C       G	    D     D9
eb|-3-3-3---3-3-3---2-2-2--0--2----3-3-3---3-3-3---2-2-2--0--2-|
Bb|-1-1-1---3-3-3---3-3-3--3--3----1-1-1---3-3-3---3-3-3--3--3-|
Gb|-0-0-0---0-0-0---2-2-2--2--2----0-0-0---0-0-0---2-2-2--2--2-|
Db|-2-2-2---0-0-0---0-0-0--0--0----2-2-2---0-0-0---0-0-0--0--0-|
Ab|-3-3-3---2-2-2------------------3-3-3---2-2-2---------------|
Eb|---------3-3-3--------------------------3-3-3---------------|
   C          G     D         C  G  D
   Sa'n ka nakalingon, aking kaibigan


    C       G       D      Em     C       G       D
eb|-3-3-3---3-3-3---2-2-2--0-0-0--3-3-3---3-3-3---2-2-2--0--2--|
Bb|-1-1-1---3-3-3---3-3-3--0-0-0--1-1-1---3-3-3---3-3-3--3--3--|
Gb|-0-0-0---0-0-0---2-2-2--0-0-0--0-0-0---0-0-0---2-2-2--2--2--|
Db|-2-2-2---0-0-0---0-0-0--2-2-2--2-2-2---0-0-0---0-0-0--0--0--|
Ab|-3-3-3---2-2-2----------2-2-2--3-3-3---2-2-2----------------|
Eb|---------3-3-3----------0-0-0----------3-3-3----------------|
C          G        D    Em      C  G  D
Hanggang kailan mo ito balak na iwasan


   C       G	    D     D9       C       G	    D     D9
eb|-3-3-3---3-3-3---2-2-2--0--2----3-3-3---3-3-3---2-2-2--0--2-|
Bb|-1-1-1---3-3-3---3-3-3--3--3----1-1-1---3-3-3---3-3-3--3--3-|
Gb|-0-0-0---0-0-0---2-2-2--2--2----0-0-0---0-0-0---2-2-2--2--2-|
Db|-2-2-2---0-0-0---0-0-0--0--0----2-2-2---0-0-0---0-0-0--0--0-|
Ab|-3-3-3---2-2-2------------------3-3-3---2-2-2---------------|
Eb|---------3-3-3--------------------------3-3-3---------------|
C               G          D     C             G       D
Ang panaho'y tumatakbong palayo Tagilid, pag-asa ng 'yong pagkakataong

    C       G       D      Em     C       G       D
eb|-3-3-3---3-3-3---2-2-2--0-0-0--3-3-3---3-3-3---2-2-2--0--2--|
Bb|-1-1-1---3-3-3---3-3-3--0-0-0--1-1-1---3-3-3---3-3-3--3--3--|
Gb|-0-0-0---0-0-0---2-2-2--0-0-0--0-0-0---0-0-0---2-2-2--2--2--|
Db|-2-2-2---0-0-0---0-0-0--2-2-2--2-2-2---0-0-0---0-0-0--0--0--|
Ab|-3-3-3---2-2-2----------2-2-2--3-3-3---2-2-2----------------|
Eb|---------3-3-3----------0-0-0----------3-3-3----------------|
C    G     D    Em   C  G  D
Lumaban sa agos at tumawid


CHORUS
    C      G
eb|-0-0-0--3-3-3--|
Bb|-1-1-1--3-3-3--|
Gb|-0-0-0--0-0-0--|3x
Db|-2-2-2--0-0-0--|
Ab|-3-3-3--2-2-2--|
Eb|--------3-3-3--|
    C           G        C      G
O anong magagawa ng maling nag-aakala
     C             G
Pagmasdan mo ang mukha

     Em        D       C       G
eb|--0-0-0-0---2-2-2---0-0-0---3-3-3----|
Bb|--0-0-0-0---3-3-3---1-1-1---3-3-3----|
Gb|--0-0-0-0---2-2-2---0-0-0---0-0-0----|
Db|--2-2-2-2---0-0-0---2-2-2---0-0-0----|
Ab|--2-2-2-2-----------3-3-3---2-2-2----|
Eb|--0-0-0-0-------------------3-3-3----|
         Em          D           C          G
Ng kung sinong pinagpala't lagi nang nagtatanong

    C      G
eb|-0-0-0--3-3-3--|
Bb|-1-1-1--3-3-3--|
Gb|-0-0-0--0-0-0--|
Db|-2-2-2--0-0-0--|
Ab|-3-3-3--2-2-2--|
Eb|--------3-3-3--|
     C             G
Sa kasama, laging may binubulong

   C       G       Em        D       C
eb|0-0-0---3-3-3---0-0-0-0---2-2-2---0-0-0------|
Bb|1-1-1---3-3-3---0-0-0-0---3-3-3---1-1-1------|
Gb|0-0-0---0-0-0---0-0-0-0---2-2-2---0-0-0------|
Db|2-2-2---0-0-0---2-2-2-2---0-0-0---2-2-2------|
Ab|3-3-3---2-2-2---2-2-2-2-----------3-3-3------|
Eb|--------0-0-0---0-0-0-0----------------------|
C          G      Em            D     C
Handa ka bang harapin ang bukas na magaganap


VERSE II

    C       G	    D     D9       C       G	    D     D9
eb|-0-0-0---3-3-3---2-2-2--0--2----0-0-0---3-3-3---2-2-2--0--2-|
Bb|-1-1-1---3-3-3---3-3-3--3--3----1-1-1---3-3-3---3-3-3--3--3-|
Gb|-0-0-0---0-0-0---2-2-2--2--2----0-0-0---0-0-0---2-2-2--2--2-|
Db|-2-2-2---0-0-0---0-0-0--0--0----2-2-2---0-0-0---0-0-0--0--0-|
Ab|-3-3-3---2-2-2------------------3-3-3---2-2-2---------------|
Eb|---------3-3-3--------------------------3-3-3---------------|
C      G    D          C  G  D
Bakit lagi kang nag-aalinlangan


    C       G       D      Em     C       G       D
eb|-0-0-0---3-3-3---2-2-2--0-0-0--0-0-0---3-3-3---2-2-2--0--2--|
Bb|-1-1-1---3-3-3---3-3-3--0-0-0--1-1-1---3-3-3---3-3-3--3--3--|
Gb|-0-0-0---0-0-0---2-2-2--0-0-0--0-0-0---0-0-0---2-2-2--2--2--|
Db|-2-2-2---0-0-0---0-0-0--2-2-2--2-2-2---0-0-0---0-0-0--0--0--|
Ab|-3-3-3---2-2-2----------2-2-2--3-3-3---2-2-2----------------|
Eb|---------3-3-3----------0-0-0----------3-3-3----------------|
C         G     D        Em   C  G  D
Wala ka naman laging dapat patunayan

     Em          D
eb|--0-0-0-0-0---2-2-2-2-2---|
Bb|--0-0-0-0-0---3-3-3-3-3---|
Gb|--0-0-0-0-0---2-2-2-2-2---|
Db|--2-2-2-2-2---0-0-0-0-0---|
Ab|--2-2-2-2-2---------------|
Eb|--0-0-0-0-0---------------|
Em                D
Lilinaw din ang himpapawid
     Em          G
eb|--0-0-0-0-0---3-3-3-3-3---|
Bb|--0-0-0-0-0---3-3-3-3-3---|
Gb|--0-0-0-0-0---0-0-0-0-0---|
Db|--2-2-2-2-2---0-0-0-0-0---|
Ab|--2-2-2-2-2---2-2-2-2-2---|
Eb|--0-0-0-0-0---3-3-3-3-3---|
Em               G
May nakalaang daang matuwid

     Em          D           C
eb|--0-0-0-0-0---2-2-2-2-2---0-0-0-0-0-|
Bb|--0-0-0-0-0---3-3-3-3-3---1-1-1-1-1-|
Gb|--0-0-0-0-0---2-2-2-2-2---0-0-0-0-0-|
Db|--2-2-2-2-2---0-0-0-0-0---2-2-2-2-2-|
Ab|--2-2-2-2-2---------------3-3-3-3-3-|
Eb|--0-0-0-0-0-------------------------|
Em              D                  C
Makikita mo sa wakas kung anong dahilan


SOLO

      Em     D       C       G       Em      D       C

eb|-----------------------------------------------------10--12-----|
Bb|--7h8------7----------------------------------------------------|
Gb|-------------7-----5/9----7------4/7-7----/9--12--12------------|
Db|----------------------------9-----------------------------------|
Ab|----------------------------------------------------------------|
Eb|----------------------------------------------------------------|

      Em     D       C       G       Em      D       C

eb|---------------------------------------------------10----8--7--5--3--|
Bb|--7-8------7-------------------------7-------------------------------|
Gb|-------------7-----5/9---7--------4/7-7----7--7----------------------|
Db|--------------------------9-7-5-7------------------------------------|
Ab|---------------------------------------------------------------------|
Eb|---------------------------------------------------------------------|


CHORUS
    C      G
eb|-0-0-0--3-3-3--|
Bb|-1-1-1--3-3-3--|
Gb|-0-0-0--0-0-0--|3x
Db|-2-2-2--0-0-0--|
Ab|-3-3-3--2-2-2--|
Eb|--------3-3-3--|
    C           G        C      G
O anong magagawa ng maling nag-aakala
     C             G
Pagmasdan mo ang mukha


     Em        D       C       G
eb|--0-0-0-0---2-2-2---0-0-0---3-3-3----|
Bb|--0-0-0-0---3-3-3---1-1-1---3-3-3----|
Gb|--0-0-0-0---2-2-2---0-0-0---0-0-0----|
Db|--2-2-2-2---0-0-0---2-2-2---0-0-0----|
Ab|--2-2-2-2-----------3-3-3---2-2-2----|
Eb|--0-0-0-0-------------------3-3-3----|
         Em          D           C          G
Ng kung sinong pinagpala't lagi nang nagtatanong

    C      G
eb|-0-0-0--3-3-3--|
Bb|-1-1-1--3-3-3--|
Gb|-0-0-0--0-0-0--|
Db|-2-2-2--0-0-0--|
Ab|-3-3-3--2-2-2--|
Eb|--------3-3-3--|
     C             G
Sa kasama, laging may binubulong

   C       G       Em        D
eb|0-0-0---3-3-3---0-0-0-0---2-2-2----|
Bb|1-1-1---3-3-3---0-0-0-0---3-3-3----|
Gb|0-0-0---0-0-0---0-0-0-0---2-2-2----|
Db|2-2-2---0-0-0---2-2-2-2---0-0-0----|
Ab|3-3-3---2-2-2---2-2-2-2------------|
Eb|--------0-0-0---0-0-0-0------------|
C          G      Em         D
Handa ka bang tumayo at maninindigan

    C      G
eb|-0-0-0--3-3-3--|
Bb|-1-1-1--3-3-3--|
Gb|-0-0-0--0-0-0--|3x
Db|-2-2-2--0-0-0--|
Ab|-3-3-3--2-2-2--|
Eb|--------3-3-3--|
    C           G        C      G
O anong magagawa ng maling nag-aakala
     C             G
Pagmasdan mo ang mukha

     Em        D       C       G
eb|--0-0-0-0---2-2-2---0-0-0---3-3-3----|
Bb|--0-0-0-0---3-3-3---1-1-1---3-3-3----|
Gb|--0-0-0-0---2-2-2---0-0-0---0-0-0----|
Db|--2-2-2-2---0-0-0---2-2-2---0-0-0----|
Ab|--2-2-2-2-----------3-3-3---2-2-2----|
Eb|--0-0-0-0-------------------3-3-3----|
         Em          D           C          G
Ng kung sinong pinagpala't lagi nang nagtatanong


    C      G
eb|-0-0-0--3-3-3--|
Bb|-1-1-1--3-3-3--|
Gb|-0-0-0--0-0-0--|
Db|-2-2-2--0-0-0--|
Ab|-3-3-3--2-2-2--|
Eb|--------3-3-3--|
     C             G
Sa kasama, laging may binubulong

   C       G       Em        D       C
eb|0-0-0---3-3-3---0-0-0-0---2-2-2---0-0-0------|
Bb|1-1-1---3-3-3---0-0-0-0---3-3-3---1-1-1------|
Gb|0-0-0---0-0-0---0-0-0-0---2-2-2---0-0-0------|
Db|2-2-2---0-0-0---2-2-2-2---0-0-0---2-2-2------|
Ab|3-3-3---2-2-2---2-2-2-2-----------3-3-3------|
Eb|--------0-0-0---0-0-0-0----------------------|
C          G      Em            D        C
Handa ka bang harapin ang bukas na magaganap
C
Harapin ang bukas na magaganap

|==========================================================================|
|==========================================================================|             
                                                             |
|======================E STANDARD TUNNING==================================|
|==========================================================================|
|==========================================================================|

Album       : Transit
Artist      : Sponge cola

Ear tabber  : ROGEM S. BATTUNG
Address     : Palawan St. Sampaloc Manila
E-mail add 1: Guitarizta_rogem@yahoo.com
Contact no  : 09187229082

School      : EARIST B.S. APPLIED PHYSICS-1
Time Elapsed:
Date        :

|==================================================|
|==================================================|
|						   |
|                     BITIW-E                      |
|						   |
|==================================================|
|==================================================|
Ear Tabber  : ROGEM S. BATTUNG
Tuning      : E A D G B e
GTR-1 Rhythym Guitar
GTR-2 Lead Guitar
GTR-3 Base Guitar

INTRO

GTR-1
   C              Bb-C             C             Bb-C
e|-------------------------------|-------------------------|
B|-------------------------------|-------------------------|
G|-55-555-555-555--3-5-----------|-55-555-555-555--3-5-----|
D|-55-555-555-555--3s5-----------|-55-555-555-555--3s5-----|
A|-33-333-333-333--1-3-----------|-33-333-333-333--1-5-----|
E|-------------------------------|-------------------------|
   C              Eb-C             C              Bb-C
e|-------------------------------|-------------------------|
B|-------------------------------|-------------------------|
G|-55-555-555-555--8-5-----------|-66-666-666-666--4-6-----|
D|-55-555-555-555--8s5-----------|-66-666-666-666--4s6-----|
A|-33-333-333-333--6-3-----------|-44-444-444-444--2-4-----|
E|-------------------------------|-------------------------|

VERSE 1
   C              Bb-C             C               Bb-C
e|-------------------------------|-------------------------|
B|-------------------------------|-------------------------|
G|-55-555-888-888--3-5-----------|-55-555-888-888--3-5-----|
D|-55-555-888-888--3s5-----------|-55-555-888-888--3s5-----|
A|-33-333-666-666--1-3-----------|-33-333-666-666--1-5-----|
E|-------------------------------|-------------------------|
  Tama walang laglagan             At sama-samang hanapin ang liwanag
   C              Eb-C             C              Bb-C
e|-------------------------------|-------------------------|
B|-------------------------------|-------------------------|
G|-55-555-888-888--8-5-----------|-55-555-888-888--3-6-----|
D|-55-555-888-888--8s5-----------|-55-555-888-888--3s6-----|
A|-33-333-666-666--6-3-----------|-33-333-666-666--1-4-----|
E|-------------------------------|-------------------------|
At tayo'y magpa2alon sa 1 daluyong Na maghahatid sa atin
   F                                G#  G  Bb   G
e|-------------------------------|-------------------------|
B|-------------------------------|-------------------------|
G|-------------------------------|----------3--------------|
D|-33333333----------------------|--6---5---3---5----------|
A|-33333333----------------------|--6---5---1---5----------|
E|-11111111----------------------|--4---3-------3----------|
   Sa isang mahabang panaginip     'di na  hihinto
   C#                              D
e|-------------------------------|-------------------------|
B|-------------------------------|-------------------------|
G|-66666666----------------------|-77777777----------------|
D|-66666666----------------------|-77777777----------------|
A|-44444444----------------------|-66666666----------------|
E|-------------------------------|-------------------------|
   ..............................  Wooh-ohh ULOL *.* hehehe

CHORUS
   Eb                              G
e|-------------------------------|-------------------------|
B|-------------------------------|-------------------------|
G|-88888888----------------------|-------------------------|
D|-88888888----------------------|-55555555----------------|
A|-66666666----------------------|-55555555----------------|
E|-------------------------------|-33333333----------------|
   Wag kang bibitiw bigla          Wag kang bibitiw bigla
   F                               G#
e|-------------------------------|-------------------------|
B|-------------------------------|-------------------------|
G|-------------------------------|-------------------------|
D|-33333333----------------------|--66666666---------------|
A|-33333333----------------------|--66666666---------------|
E|-11111111----------------------|--44444444---------------|
   Higpitan lang ang iyong kapit    Maglalayag patungong langit

  BASS GUITAR (pwede rin sa acoustic or elec. qng wala kyo bass
  GTR-3
 C#         B        G#         F#
e|---------------------------------------------------------|
B|---------------------------------------------------------|
G|---------------------------------------------------------|
D|---------------------------------------------------------|
A|---------------------------------------------------------|
E|-8-8-8-8---6-6-6-6---3-3-3-3---1-1-1-1-------------------|
    C#         B        G#         F#
e|---------------------------------------------------------|
B|---------------------------------------------------------|
G|---------------------------------------------------------|
D|---------------------------------------------------------|
A|---------------------------------------------------------|
E|-8-8-8-8---6-6-6-6---3-3-3-3---1-1-1-1-------------------|
   Na na na na na na na na .............
   C       G         Bb
e|---------------------------------------------------------|
B|---------------------------------------------------------|
G|-55------------------------------------------------------|
D|-55------55---------88-----------------------------------|
A|-33------55---------88-----------------------------------|
E|---------33---------66-----------------------------------|
   Teka, kaya ba natin 'to
   C       G         Bb
e|---------------------------------------------------------|
B|---------------------------------------------------------|
G|-55------------------------------------------------------|
D|-55------55---------88-----------------------------------|
A|-33------55---------88-----------------------------------|
E|---------33---------66-----------------------------------|
   Kung hindi na'y aakayin ka't itatayo
  C       G         Bb
e|---------------------------------------------------------|
B|---------------------------------------------------------|
G|-55------------------------------------------------------|
D|-55------55---------88-----------------------------------|
A|-33------55---------88-----------------------------------|
E|---------33---------66-----------------------------------|
   yun 'yon kaya hangang ngayon
   G#
e|---------------------------------------------------------|
B|---------------------------------------------------------|
G|---------------------------------------------------------|
D|-666666666-----------------------------------------------|
A|-666666666-----------------------------------------------|
E|-444444444-----------------------------------------------|
   Tuloy-tuloy, tuloy-tuloy, tuloy

CHORUS
   Eb                              G
e|-------------------------------|-------------------------|
B|-------------------------------|-------------------------|
G|-88888888----------------------|-------------------------|
D|-88888888----------------------|-55555555----------------|
A|-66666666----------------------|-55555555----------------|
E|-------------------------------|-33333333----------------|
   Wag kang bibitiw bigla          Wag kang bibitiw bigla
   F                               G#
e|-------------------------------|-------------------------|
B|-------------------------------|-------------------------|
G|-------------------------------|-------------------------|
D|-33333333----------------------|--66666666---------------|
A|-33333333----------------------|--66666666---------------|
E|-11111111----------------------|--44444444---------------|
   Higpitan lang ang iyong kapit    Maglalayag patungong langit
   Eb                              G
e|-------------------------------|-------------------------|
B|-------------------------------|-------------------------|
G|-88888888----------------------|-------------------------|
D|-88888888----------------------|-55555555----------------|
A|-66666666----------------------|-55555555----------------|
E|-------------------------------|-33333333----------------|
   Wag kang bibitiw bigla          Pikit ang yong mga mata
   F                               G#
e|-------------------------------|-------------------------|
B|-------------------------------|-------------------------|
G|-------------------------------|-------------------------|
D|-33333333----------------------|--66666666---------------|
A|-33333333----------------------|--66666666---------------|
E|-11111111----------------------|--44444444---------------|
   Higpitan lang ang iyong kapit    Maglalayag patungong langit

INTERLUDE
   GTR-3
   C      Bb   G  F  G           C      Bb    G   D
e|--------------------------------------------------------|
B|--------------------------------------------------------|
G|--------------------------------------------------------|
D|--------------------------------------------------------|
A|-3-3-3--1-3--------------------3-3-3--1-3-------5-5-----|
E|-------------3--1--3-3---------------------3-3----------|
then play GTR-3 and GTR riff nilagay ko na ha
kung GTR-3 or GTR-2 ung I-pplay mo ok
   GTR-3
  C      Bb   G  F  G           C      Bb    G   D
e|--------------------------------------------------------|
B|--------------------------------------------------------|
G|--------------------------------------------------------|
D|--------------------------------------------------------|
A|-3-3-3--1-3--------------------3-3-3--1-3-------5-5-----|
E|-------------3--1--3-3---------------------3-3----------|
 |  GTR-2 riff
e|--------------------------------------------------------|
B|-8-9--8s6-8h6s4-6-4s3-4-3s1-----------------------------|
G|-----------------------------3-4s5~------3---3---3~~~~--|
D|-------------------------------------------5--5---------|
A|--------------------------------------------------------|
E|--------------------------------------------------------|
    GTR-1
   C   Bb    G    F    G         C   F    G      D
e|--------------------------------------------------------|
B|--------------------------------------------------------|
G|-555-3-7-----------------------555-3-7---------7--7-----|
D|-555-3-7---5----3----55--------555-3-7--5--5---7--7-----|
A|-333-1-5---5----3----55--------333-1-5--5--5---5--5-----|
E|-----------3----1----33-----------------3--3------------|
 |  GTR-2
e|--------------------------------------------------------|
B|-------3--3-3---3--3s5----------------------------------|
G|-----5-----5--5-------------------------3-3-3-3---------|
D|1s3-3-------------------------------5----5---5---1-1----|
A|-------------------------------1s3-3-----------3--------|
E|--------------------------------------------------------|
    GTR-1
    F                      G#
e|-------------------------------------------------------|
B|-------------------------------------------------------|
G|-------------------------------------------------------|
D|--333333333--------------666666666---------------------|
A|--333333333--------------666666666---------------------|
E|--111111111--------------444444444---------------------|
 |  GTR-2
e|--------------------------------------------------12---|
B|----------------------------4-4-6-6s8-6-8s9-9-10-------|
G|------------------------3s5----------------------------|
D|--2s3--------------------------------------------------|
A|-------------------------------------------------------|
E|-------------------------------------------------------|
    GTR-1
    C                 G         Bb
e|-------------------------------------------------------|
B|-------------------------------------------------------|
G|-------------------------------------------------------|
D|--101010101010------5----------8-----------------------|
A|--101010101010------5----------8-----------------------|
E|---8-8-8-8-8-8------3----------6-----------------------|
    Ating tinig,
    GTR-2 Picking part 11 yan hindi 1-1 nxt 10 hindi 1-0---| ok
e|--11111111111111111111111111111-10.10.10.10.10-----------|
B|---------------------------------------------------------|
G|---------------------------------------------------------|
D|---------------------------------------------------------|
A|---------------------------------------------------------|
E|---------------------------------------------------------|
    C                 G         Bb
e|-------------------------------------------------------|
B|-------------------------------------------------------|
G|-------------------------------------------------------|
D|--101010101010------5----------8-----------------------|
A|--101010101010------5----------8-----------------------|
E|---8-8-8-8-8-8------3----------6-----------------------|
  ating himig

 GTR-2
e|--11111111111111111111111111111-10.10.10.10.10---------|
B|-------------------------------------------------------|
G|-------------------------------------------------------|
D|-------------------------------------------------------|
A|-------------------------------------------------------|
E|-------------------------------------------------------|
    C                 G         Bb
e|-------------------------------------------------------|
B|-------------------------------------------------------|
G|-------------------------------------------------------|
D|--101010101010------5----------8-----------------------|
A|--101010101010------5----------8-----------------------|
E|---8-8-8-8-8-8------3----------6-----------------------|
    Abot langit
  GTR-2
e|--11111111111111111111111111111-10.10.10.10.10---------|
B|-------------------------------------------------------|
G|-------------------------------------------------------|
D|-------------------------------------------------------|
A|-------------------------------------------------------|
E|-------------------------------------------------------|
    F                      G#
B|-------------------------------------------------------|
G|-------------------------------------------------------|
D|--333333333--------------666666666---------------------|
A|--333333333--------------666666666---------------------|
E|--111111111--------------444444444---------------------|
    Heto na tayo (heto na tayo) 2x
CHORUS
   Eb                              G
e|-------------------------------|-------------------------|
B|-------------------------------|-------------------------|
G|-88888888----------------------|-------------------------|
D|-88888888----------------------|-55555555----------------|
A|-66666666----------------------|-55555555----------------|
E|-------------------------------|-33333333----------------|
   Wag kang bibitiw bigla          Wag kang bibitiw bigla
   F                               G#
e|-------------------------------|-------------------------|
B|-------------------------------|-------------------------|
G|-------------------------------|-------------------------|
D|-33333333----------------------|--66666666---------------|
A|-33333333----------------------|--66666666---------------|
E|-11111111----------------------|--44444444---------------|
   Higpitan lang ang iyong kapit    Maglalayag patungong langit
   Eb                              G
e|-------------------------------|-------------------------|
B|-------------------------------|-------------------------|
G|-88888888----------------------|-------------------------|
D|-88888888----------------------|-55555555----------------|
A|-66666666----------------------|-55555555----------------|
E|-------------------------------|-33333333----------------|
   Wag kang bibitiw bigla          Pikit ang yong mga mata
   F                               G#
e|-------------------------------|-------------------------|
B|-------------------------------|-------------------------|
G|-------------------------------|-------------------------|
D|-33333333----------------------|--66666666---------------|
A|-33333333----------------------|--66666666---------------|
E|-11111111----------------------|--44444444---------------|
   Higpitan lang ang iyong kapit    Maglalayag patungong langit
   Eb                              G
e|-------------------------------|-------------------------|
B|-------------------------------|-------------------------|
G|-88888888----------------------|-------------------------|
D|-88888888----------------------|-55555555----------------|
A|-66666666----------------------|-55555555----------------|
E|-------------------------------|-33333333----------------|
   wohhh.........................
   F                               G#
e|-------------------------------|-------------------------|
B|-------------------------------|-------------------------|
G|-------------------------------|-------------------------|
D|-33333333----------------------|--66666666---------------|
A|-33333333----------------------|--66666666---------------|
E|-11111111----------------------|--44444444---------------|
   Eb                              G
e|-------------------------------|-------------------------|
B|-------------------------------|-------------------------|
G|-88888888----------------------|-------------------------|
D|-88888888----------------------|-55555555----------------|
A|-66666666----------------------|-55555555----------------|
E|-------------------------------|-33333333----------------|
   heto na tayo (heto na tayo)     heto na tayo (heto na tayo)
   F                               G#
e|-------------------------------|-------------------------|
B|-------------------------------|-------------------------|
G|-------------------------------|-5-5-3-5-5-3-5-----------|
D|-33333333----------------------|-3-3-1-3-3-1-3-5---------|
A|-33333333----------------------|---------------3---------|
E|-11111111----------------------|-------------------------|
   heto na tayo (heto na tayo)
I DEDICATE THIS TO ALL BSAP STUDENT AND TO ALL EARIST STUDENT
!!
fOR ANY SUGGESTION TXT ME 09187229082 ROGEM [ if you tym rate my tab]
INVITE Nyo na Din Ako Guitarizta_rogem@yahoo.com


|==========================================================================|
|==========================================================================|
|==========================================================================|


|==================================================|
|==================================================|
|						   |
|                     TULIRO-E                     |
|						   |
|==================================================|
|==================================================|


INTRO

GTR I
    F#          Bbm         B        Bm
e|-2-2-2-2--|-1-1-1-1--|-2-2-2-2-|-2--2----|
B|-2-2-2-2--|-2-2-2-2--|-4-4-4-4-|-3---3-3-|
G|-3-3-3-3--|-3-3-3-3--|-4-4-4-4-|-4-4--4--|
D|----------|----------|---------|---------|
A|----------|----------|---------|---------|
E|----------|----------|---------|---------|

GTR II
e|----------|----------|-----7---|-----7---|
B|----------|----------|-7-7----7|-7--7-7--|
G|----------|----------|-8-------|-7-------|
D|----------|----------|---------|---------|
A|----------|----------|---------|---------|
E|----------|----------|---------|---------|


VERSE

GTR I
    F#          Bbm         B        Bm
e|----------|----------|---------|-2--2----|
B|-2-2-2-2--|-2-2-2-2--|-4-4-4-4-|-3---3-3-|
G|-3-3-3-3--|-3-3-3-3--|-4-4-4-4-|-4-4--4--|
D|-4-4-4-4--|-3-3-3-3--|-4-4-4-4-|-4-------|2x
A|-4-4-4-4--|-1-1-1-1--|-2-2-2-2-|---------|
E|----------|----------|---------|---------|

GTR II
e|-6--6-----|-6---6-6--|-7---7---|-7---7---|
B|-7----7---|-6-----6--|-7----7--|-7-------|
G|-6-6------|-6-6------|-8-8-----|-7-7---7-|2x
D|----------|----------|---------|---------|
A|----------|----------|---------|---------|
E|----------|----------|---------|---------|

Labis  akoy nahuhumaling
sabik sa bawat sandaling ikay makapiling
Giliw hayaang lumapit
Huwag mo sanang ipagkait
Ang malas ng langit


CHORUS

ROGEM -> ung d2 sa chorus pakingan nyo sa adudio para malaman
	 nyo ung timing ng GTR II maririnig nyo kasabay un ng
         Drum

GTR I
           F#    Bbm        B        G#m
e|--------------------------------------|
B|------2-2-x---2--------4-4-4------4-4-|
G|------3-3-x---3--------4-4-4------4-4-|
D|------4-4-x---3--------4-4-4------6-6-|
A|------4-4-x---1--------2-2-2------6-6-|
E|----------------------------------4-4-|
Anong na      darama tuwing nakikita kang


GTR I
           F#    Bbm        B        G#m
e|--------------------------------------|
B|------2-2-x---2--------4-4-4------4-4-|
G|------3-3-x---3--------4-4-4------4-4-|
D|------4-4-x---3--------4-4-4------6-6-|
A|------4-4-x---1--------2-2-2------6-6-|
E|----------------------------------4-4-|
GTR II
e|-9(12x)-------10(12x)-----11(24x)------|
B|---------------------------------------|
G|---------------------------------------|
D|---------------------------------------|
A|---------------------------------------|
E|---------------------------------------|
dumarating     tuliro di malaman anong gagawin at

GTR I
e|---------|---------|---------|---------|
B|---------|---------|---------|---------|
G|---------|-6-6-6-6-|-8-8-8-8-|7-7-7-7--|
D|-4-4-4-4-|-6-6-6-6-|-8-8-8-8-|7-7-7-7--|
A|-4-4-4-4-|-4-4-4-4-|-6-6-6-6-|5-5-5-5--|
E|-2-2-2-2-|---------|---------|---------|
   GTR II
e|-9(12x)--|-10(12x)-|-11(12x)-|-10(12x)-|
B|---------|---------|---------|---------|gumamit kyo ng
G|---------|---------|---------|---------|alternate picking
D|---------|---------|---------|---------|mabilis dapat
A|---------|---------|---------|---------|
E|---------|---------|---------|---------|
   Walang sinumang makapipigil sa akin

GTR I
e|---------|---------|---------|--------|
B|---------|---------|---------|--------|
G|---------|-6-6-6-6-|-8-8-8-8-|9-9-9-9-|
D|-4-4-4-4-|-6-6-6-6-|-8-8-8-8-|9-9-9-9-|
A|-4-4-4-4-|-4-4-4-4-|-6-6-6-6-|7-7-7-7-|
E|-2-2-2-2-|---------|---------|--------|
   GTR II
e|--9(12x)-|-10(12x)-|-11(12x)-|-10(12x)-|
B|---------|---------|---------|---------|gumamit kyo ng
G|---------|---------|---------|---------|alternate picking
D|---------|---------|---------|---------|mabilis dapat
A|---------|---------|---------|---------|
E|---------|---------|---------|---------|
At wala nang ibang makapagbabago ng aking

GTR I
e|---------2----2--------------------|
B|-4--4----3------3---3--------------|
G|-4--4----4--4-----4----------------|
D|-4--4----4-------------------------|
A|-2--2------------------------------|
E|-----------------------------------|
   isip, sayo...
GTR II
e|-----------------------------------|
B|-12(x24)---------------------------|
G|-----------------------------------|
D|-----------------------------------|
A|-----------------------------------|
E|-----------------------------------|


VERSE II
ROGEM - > tag isang strum lang sa GTR I ung GTR II
	  Pakinggan nyo nalang as audio ung ryt timing
	  ha

GTR I
    F#         Bbm        B         Bm
e|----------|----------|---------|-x---2---|
B|-2--------|-2--------|-4-------|-3----3-3|
G|-3--let---|-3--let---|-4--let--|-4-4---4-|
D|-4--ring--|-3--ring--|-4--ring-|-4-------|
A|-4--------|-1--------|-2-------|---------|
E|----------|----------|---------|---------|
GTR II
e|------------------------------------------------------------------------------|
B|11-11-11-10-10-10-9-99-8-88-7-77-6-66-5-55-4-44-3-33-2-22-1-11----------------|
G|---------------------------------------------------------------4-44-3-3-------|
D|------------------------------------------------------------------------------|
A|------------------------------------------------------------------------------|
E|------------------------------------------------------------------------------|
   Wari di ko na malimot
   Mga galaw at kilos mo
   Sa aking pagtulog


GTR I
    F#          Bbm         B        Bm
e|----------|----------|----------|-2--2----|
B|-2-2-2-2--|-2-2-2-2--|-4-4-4-4--|-3---3-3-|
G|-3-3-3-3--|-3-3-3-3--|-4-4-4-4--|-4-4--4--|
D|-4-4-4-4--|-3-3-3-3--|-4-4-4-4--|-4-------|
A|-4-4-4-4--|-1-1-1-1--|-2-2-2-2--|---------|
E|----------|----------|----------|---------|
GTR II
e|22222-4-22|11111-4-22|22222-4-22|22222-4-22|
B|22222-2-22|22222-2-22|44444-4-44|33333-3-33|
G|33333-3-33|33333-x-33|44444-x-44|44444---44|
D|----------|----------|----------|----------|
A|----------|----------|----------|----------|
E|----------|----------|----------|----------|
   At sa panaginip
   Ikay mamalagi
   Di na muling malulumbay
   Sa aking paggising


CHORUS
GTR I
           F#    Bbm        B        G#m
e|--------------------------------------|
B|------2-2-x---2--------4-4-4------4-4-|
G|------3-3-x---3--------4-4-4------4-4-|
D|------4-4-x---3--------4-4-4------6-6-|
A|------4-4-x---1--------2-2-2------6-6-|
E|----------------------------------4-4-|
GTR II
e|-----11-9-----------------------------|
B|-----9--7-----------------------------|
G|--------------------------------------|
D|--------------------------------------|
A|--------------------------------------|
E|--------------------------------------|
Anong na      darama tuwing nakikita kang

GTR I
           F#    Bbm        B        G#m
e|--------------------------------------|
B|------2-2-x---2--------4-4-4------4-4-|
G|------3-3-x---3--------4-4-4------4-4-|
D|------4-4-x---3--------4-4-4------6-6-|
A|------4-4-x---1--------2-2-2------6-6-|
E|----------------------------------4-4-|
dumarating tuliro di malaman anong gagawin at


GTR I
e|---------|---------|---------|---------|
B|---------|---------|---------|---------|
G|---------|-6-6-6-6-|-8-8-8-8-|7-7-7-7--|
D|-4-4-4-4-|-6-6-6-6-|-8-8-8-8-|7-7-7-7--|
A|-4-4-4-4-|-4-4-4-4-|-6-6-6-6-|5-5-5-5--|
E|-2-2-2-2-|---------|---------|---------|
   Walang sinumang makapipigil sa akin

GTR I
e|---------|---------|---------|--------|
B|---------|---------|---------|--------|
G|---------|-6-6-6-6-|-8-8-8-8-|9-9-9-9-|
D|-4-4-4-4-|-6-6-6-6-|-8-8-8-8-|9-9-9-9-|
A|-4-4-4-4-|-4-4-4-4-|-6-6-6-6-|7-7-7-7-|
E|-2-2-2-2-|---------|---------|--------|
   At wala nang ibang makapagbabago ng aking

e|-----------------------------------|
B|-4--4----3-------------------------|
G|-4--4----4-------------------------|
D|-4--4----4-------------------------|
A|-2--2----2-------------------------|
E|-----------------------------------|
   isip  sayo ohhh!!!!! ulol


GTR I
           F#     Bbm
e|-------------------------|
B|-------2-2--x--2---------|
G|-------3-3--x--3---------|
D|-------4-4--x--3---------|
A|-------4-4--x--1---------|
E|-------------------------|
GTR II
e|---------------9---------|
B|---------------9---------|
G|---------------x---------|
D|---------------8---------|
A|-------------------------|
E|-------------------------|
   Anong na   darama

SOLO

ROGEM -pataas ung bend sa (15b,14b,13b)
      -ung (15x,16x) may palm mute un medyo mabilis dun ha

GTR I
         F#        Bbm       B          G#m
e|------------------------------------------|
B|-----2-2-2----2-2-2------4-4-4------4-4-4-|
G|-----3-3-3----3-3-3------4-4-4------4-4-4-|
D|-----4-4-4----3-3-3------4-4-4------6-6-6-|
A|-----4-4-4----1-1-1------2-2-2------6-6-6-|
E|------------------------------------4-4-4-|
GTR II
e|------9-9-9-9s11-9-------------15b----14-13-11-13-14-16-16-18-16p14-14|
B|11-12---------------12-11------14b---16x------------------------------|
G|---------------------------11~-13b-15x--------------------------------|
D|----------------------------------------------------------------------|
A|----------------------------------------------------------------------|
E|----------------------------------------------------------------------|

GTR I
         F#        Bbm       B          G#m
e|------------------------------------------|
B|-----2-2-2----2-2-2------4-4-4------4-4-4-|
G|-----3-3-3----3-3-3------4-4-4------4-4-4-|
D|-----4-4-4----3-3-3------4-4-4------6-6-6-|
A|-----4-4-4----1-1-1------2-2-2------6-6-6-|
E|------------------------------------4-4-4-|
GTR II
e|----------------13s14-14p13------13s14-16-16-17b-16-14-17b-16-15----------|
B|-------14-16-14------------14-16---------------------------14-------------|
G|-13s15--------------------------------------------------------------------|
D|--------------------------------------------------------------------------|
A|--------------------------------------------------------------------------|
E|--------------------------------------------------------------------------|

CHORUS

           F#      Bbm        B         G#m
e|--------------------------------------------|
B|--------2------2-2-------4-4-4-----4-4-4----|
G|--------3------3-3-------4-4-4-----4-4-4----|
D|--------4------3-3-------4-4-4-----6-6-6----|
A|--------4------1-1-------2-2-2-----6-6-6----|
E|-----------------------------------4-4-4----|
   Anong nadarama tuwing nakikita kang
   dumarating  tuliro di malaman anong gagawin at

GTR I
e|---------|---------|---------|---------|
B|---------|---------|---------|---------|
G|---------|-6-6-6-6-|-8-8-8-8-|7-7-7-7--|
D|-4-4-4-4-|-6-6-6-6-|-8-8-8-8-|7-7-7-7--|
A|-4-4-4-4-|-4-4-4-4-|-6-6-6-6-|5-5-5-5--|
E|-2-2-2-2-|---------|---------|---------|
   Walang sinumang makapipigil sa akin

GTR I
e|---------|---------|---------|--------|
B|---------|---------|---------|--------|
G|---------|-6-6-6-6-|-8-8-8-8-|9-9-9-9-|
D|-4-4-4-4-|-6-6-6-6-|-8-8-8-8-|9-9-9-9-|
A|-4-4-4-4-|-4-4-4-4-|-6-6-6-6-|7-7-7-7-|
E|-2-2-2-2-|---------|---------|--------|
At wala nang ibang makapagbabago ng aking


e|-----------------------------------|
B|-4--4----33333333------------------|
G|-4--4----44444444------------------|
D|-4--4----44444444------------------|
A|-2--2----22222222------------------|
E|-----------------------------------|
   isip  sayo

GTR I
          F#    Bbm        B        G#m
e|--------------------------------------|
B|------2-2-x---2--------4-4-4------4-4-|
G|------3-3-x---3--------4-4-4------4-4-|
D|------4-4-x---3--------4-4-4------6-6-|
A|------4-4-x---1--------2-2-2------6-6-|
E|----------------------------------4-4-|
   Anong na--darama ngayon at nandirito ka
   saking tabi  tuliro di malaman anong gagawin at

GTR I
e|---------|---------|---------|---------|
B|---------|---------|---------|---------|
G|---------|-6-6-6-6-|-8-8-8-8-|7-7-7-7--|
D|-4-4-4-4-|-6-6-6-6-|-8-8-8-8-|7-7-7-7--|
A|-4-4-4-4-|-4-4-4-4-|-6-6-6-6-|5-5-5-5--|
E|-2-2-2-2-|---------|---------|---------|
   Walang sinumang makapipigil sa akin
GTR I
e|---------|---------|---------|--------|
B|---------|---------|---------|--------|
G|---------|-6-6-6-6-|-8-8-8-8-|9-9-9-9-|
D|-4-4-4-4-|-6-6-6-6-|-8-8-8-8-|9-9-9-9-|
A|-4-4-4-4-|-4-4-4-4-|-6-6-6-6-|7-7-7-7-|
E|-2-2-2-2-|---------|---------|--------|
   At wala nang ibang makapagbabago ng aking

            Bm
e|--------------x---------------------|
B|-4--4----3----x---------------------|
G|-4--4----4----x---------------------|
D|-4--4----4----x---------------------|
A|-2--2----2----x---------------------|
E|--------------x---------------------|
   isip, sayo.

ROGEM - pahina lang ng pahina di2

GTR I
    F#        Bbm       B        Bm
e|------------------------------------|
B|-2-2-2-2--2-2-2-2--4-4-4-4--3-3-3-3-|
G|-3-3-3-3--3-3-3-3--4-4-4-4--4-4-4-4-|
D|-4-4-4-4--3-3-3-3--4-4-4-4--4-4-4-4-|
A|-4-4-4-4--1-1-1-1--2-2-2-2--2-2-2-2-|
E|------------------------------------|


|==========================================================================|
|==========================================================================|
|==========================================================================|


|==================================================|
|==================================================|
|						   |
|                     MOVIE-E                      |
|						   |
|==================================================|
|==================================================|


CHORDS

E      = x68800
EM7/Eb = x58700
Cm     = x35543
G#     = 466544
Bb     = x13331
Gm     = 355333


VERSE I

Eb
The movie?s done once more
Eb
The mood sets in with lights
Eb                           DM7/D
Let?s wait for them to leave
                           Eb
I was never one for crowds


       Eb                       G#
e|-----0-0-0-0-0-0-0-0----------4-4-4-4-4-4-4-4-----------|
B|-----0-0-0-0-0-0-0-0----------4-4-4-4-4-4-4-4-----------|
G|-----8-8-8-8-8-8-8-8----------5-5-5-5-5-5-5-5-----------|
D|-----8-8-8-8-8-8-8-8----------6-6-6-6-6-6-6-6-----------|
A|-----6-6-6-6-6-6-6-6----------6-6-6-6-6-6-6-6-----------|
E|-----x-x-x-x-x-x-x-x----------4-4-4-4-4-4-4-4-----------|
	I look down on the floor
       Eb                                  G#
e|-----0-0-0-0-0-0-0-0-0-0-0-0-0-0---------4-4-4-4-4-4-4-4|
B|-----0-0-0-0-0-0-0-0-0-0-0-0-0-0---------4-4-4-4-4-4-4-4|
G|-----8-8-8-8-8-8-8-8-8-8-8-8-8-8---------5-5-5-5-5-5-5-5|
D|-----8-8-8-8-8-8-8-8-8-8-8-8-8-8---------6-6-6-6-6-6-6-6|
A|-----6-6-6-6-6-6-6-6-6-6-6-6-6-6---------6-6-6-6-6-6-6-6|
E|-----x-x-x-x-x-x-x-x-x-x-x-x-x-x---------4-4-4-4-4-4-4-4|
	Everything?s undone Yet we?ve been so much more
                           Eb
	han a full length feature

Interlude
     Eb        DM7/D      G# 	       Cm-Bb
e|---0-0-0-0-0-0-0-0-0-0--4-4-4-4-4---3-3--1-1-|
B|---0-0-0-0-0-0-0-0-0-0--4-4-4-4-4---4-4--3-3-|
G|---8-8-8-8-8-7-7-7-7-7--5-5-5-5-5---5-5--3-3-|
D|---8-8-8-8-8-8-8-8-8-8--6-6-6-6-6---5-5--3-3-|
A|---6-6-6-6-6-5-5-5-5-5--6-6-6-6-6---3-3--1-1-|
E|------------------------4-4-4-4-4---x-x--x-x-|


    Gm                 	          G#
e|--33333333----------------------44444444--------|
B|--33333333----------------------44444444--------|
G|--33333333----------------------55555555--------|
D|--55555555----------------------66666666--------|
A|--55555555----------------------66666666--------|
E|--33333333----------------------44444444--------|
  We long for escape    Let this memory take shape

    Eb                    DM7/D
e|--0000000---------------00000000----------------|
B|--0000000---------------00000000----------------|
G|--8888888---------------77777777----------------|
D|--8888888---------------88888888----------------|
A|--6666666---------------55555555----------------|
E|------------------------------------------------|
   For the heroes we often see

    Gm                 	          G#
e|--33333333----------------------44444444--------|
B|--33333333----------------------44444444--------|
G|--33333333----------------------55555555--------|
D|--55555555----------------------66666666--------|
A|--55555555----------------------66666666--------|
E|--33333333----------------------44444444--------|
I don?t know if it?s me    Or the movies we?ve seen

    Eb                    DM7/D
e|--0000000---------------00000000----------------|
B|--0000000---------------00000000----------------|
G|--8888888---------------77777777----------------|
D|--8888888---------------88888888----------------|
A|--6666666---------------55555555----------------|
E|------------------------------------------------|
I don?t remember As well as i should

CHORUS

GTR I
     Eb        DM7/D      G# 	       Cm-Bb
e|---0-0-0-0-0-0-0-0-0-0--4-4-4-4-4---3-3--1-1-|
B|---0-0-0-0-0-0-0-0-0-0--4-4-4-4-4---4-4--3-3-|
G|---8-8-8-8-8-7-7-7-7-7--5-5-5-5-5---5-5--3-3-|
D|---8-8-8-8-8-8-8-8-8-8--6-6-6-6-6---5-5--3-3-|
A|---6-6-6-6-6-5-5-5-5-5--6-6-6-6-6---3-3--1-1-|
E|------------------------4-4-4-4-4---x-x--x-x-|

GTR II
e|------------6------------6-------------6-------------6|
B|----6-8--9-------6-8-9---------6-8--9----------6-8--9-|
G|--8------------7-------------8---------------5--------|
D|------------------------------------------------------|
A|------------------------------------------------------|
E|------------------------------------------------------|
I stay so silent with your arms adjacent
And credits may soon roll away

INTERLUDE
GTR I
   Eb 	G# 	Eb 	DM7/D
e|-0----4-------0--------0-----------------------------|
B|-0----4-------0--------0-----------------------------|
G|-8----5-------8--------7-----------------------------|
D|-8----6-------8--------8-----------------------------|
A|-6----6-------6--------5-----------------------------|
E|------4----------------------------------------------|

VERSE II
    Gm                 	          G#
e|--33333333----------------------44444444--------|
B|--33333333----------------------44444444--------|
G|--33333333----------------------55555555--------|
D|--55555555----------------------66666666--------|
A|--55555555----------------------66666666--------|
E|--33333333----------------------44444444--------|
GTR II
e|-3---5--------------------------4--4------------|
B|--3---3--------------------------5--5-----------|
G|---3---3--------------------------6--6----------|
D|------------------------------------------------|
A|------------------------------------------------|
E|------------------------------------------------|
You have my jacket on

GTR I

    Eb                    DM7/D
e|--0000000---------------00000000----------------|
B|--0000000---------------00000000----------------|
G|--8888888---------------77777777----------------|
D|--8888888---------------88888888----------------|
A|--6666666---------------55555555----------------|
E|------------------------------------------------|
GTR II
e|-0------0---------------0------0----------------|
B|--0----0-----------------0----0-----------------|
G|------------------------------------------------|
D|-----9----------------------9-------------------|
A|----7----------------------6--------------------|
E|------------------------------------------------|
Comfort in my warmth ( I?m used to the cold )


    Gm                 	          G#
e|--33333333----------------------44444444--------|
B|--33333333----------------------44444444--------|
G|--33333333----------------------55555555--------|
D|--55555555----------------------66666666--------|
A|--55555555----------------------66666666--------|
E|--33333333----------------------44444444--------|
And i hope you?d agree How this story should be

    Eb                    DM7/D
e|--0000000---------------00000000----------------|
B|--0000000---------------00000000----------------|
G|--8888888---------------77777777----------------|
D|--8888888---------------88888888----------------|
A|--6666666---------------55555555----------------|
E|------------------------------------------------|
How i wish i could change the scenes

GTR I
    Gm                 	          G#
e|--33333333----------------------44444444--------|
B|--33333333----------------------44444444--------|
G|--33333333----------------------55555555--------|
D|--55555555----------------------66666666--------|
A|--55555555----------------------66666666--------|
E|--33333333----------------------44444444--------|
GTR II
e|------------6---------------------------6-------|
B|----6-8--9-----------------------6-8-9----------|
G|--8-----------------------------7---------------|
D|------------------------------------------------|
A|------------------------------------------------|
E|------------------------------------------------|
I?d write on the next page An early coming of age

GTR I
    Eb                    DM7/D
e|--0000000---------------00000000----------------|
B|--0000000---------------00000000----------------|
G|--8888888---------------77777777----------------|
D|--8888888---------------88888888----------------|
A|--6666666---------------55555555----------------|
E|------------------------------------------------|
GTR II
e|------6s8-6---------------------6---------------|
B|--6-8--------------------6-8--9-----------------|
G|-8---------------------7------------------------|
D|------------------------------------------------|
A|------------------------------------------------|
E|------------------------------------------------|
For me to tell you As well as i could

Chorus
GTR I
    E 		  EM7/Eb       A 		C#m-B
e|--0-0-0-0-0----0-0-0-0-0----0-0-0-0-0--------4-4--2-2-|
B|--0-0-0-0-0----0-0-0-0-0----2-2-2-2-2--------5-5--4-4-|
G|--9-9-9-9-9----8-8-8-8-8----2-2-2-2-2--------6-6--4-4-|2x
D|--9-9-9-9-9----9-9-9-9-9----2-2-2-2-2--------6-6--4-4-|
A|--7-7-7-7-7----6-6-6-6-6----0-0-0-0-0--------4-4--2-2-|
E|---------------------------------------------x-x--x-x-|
GTR II
e|------------7------------7-------------7-------------7|
B|----7-9-10-------7-9-10--------7-9-10----------7-9-10-|
G|--9------------8-------------9---------------6--------|
D|------------------------------------------------------|
A|------------------------------------------------------|
E|------------------------------------------------------|
I stay so silent with your arms adjacent
And credits may soon roll away


GTR I
     Eb        DM7/D      G# 	       Cm-Bb
e|---0-0-0-0-0-0-0-0-0-0--4-4-4-4-4---3-3--1-1-|
B|---0-0-0-0-0-0-0-0-0-0--4-4-4-4-4---4-4--3-3-|
G|---8-8-8-8-8-7-7-7-7-7--5-5-5-5-5---5-5--3-3-|2x
D|---8-8-8-8-8-8-8-8-8-8--6-6-6-6-6---5-5--3-3-|
A|---6-6-6-6-6-5-5-5-5-5--6-6-6-6-6---3-3--1-1-|
E|------------------------4-4-4-4-4---x-x--x-x-|
Could I stay so silent with your arms adjacent
The vagueness may soon come to light
Should

GTR I
     Eb        DM7/D      G# 	       Cm-Bb
e|---0-0-0-0-0-0-0-0-0-0--4-4-4-4-4---3-3--1-1-|
B|---0-0-0-0-0-0-0-0-0-0--4-4-4-4-4---4-4--3-3-|
G|---8-8-8-8-8-7-7-7-7-7--5-5-5-5-5---5-5--3-3-|
D|---8-8-8-8-8-8-8-8-8-8--6-6-6-6-6---5-5--3-3-|2x
A|---6-6-6-6-6-5-5-5-5-5--6-6-6-6-6---3-3--1-1-|
E|------------------------4-4-4-4-4---x-x--x-x-|
GTR II
ROGEM - > e2ng lead na 2 gawin nyo 2 continues hangang
          matapos ung song
e|-------6----------------------------------------------|
B|---6h8------------------------------------------------|
G|-8----------------------------------------------------|
D|------------------------------------------------------|
A|------------------------------------------------------|
E|------------------------------------------------------|
I stay so silent with your arms adjacent
As i play my part in our show

( DO SAME CHORDS )

Forever shall i be the ill-fated type
Forever must i be the one you confide to
Forever must i be the pages you need
For you to write all the secrets that
You hope i would keep
Forever must i drive you home late at night
After watching these films that seem to imitate life
Forever must i be the opinion you seek
Forever will i be the friend that you would keep

E EM7/Eb A Continue lang ung stram last chord G#


|==========================================================================|
|==========================================================================|
|==========================================================================|


|==================================================|
|==================================================|
|						   |
|                 THE WANDERING-E                  |
|						   |
|==================================================|
|==================================================|


INTRO
    Eb           B          Eb            C#
e|-----------|----------|------------|----------|
B|-----------|----------|------------|----------|
G|-888888888-|-44444444-|-888888888--|-666666---|
D|-888888888-|-44444444-|-888888888--|-666666---|
A|-666666666-|-22222222-|-666666666--|-444444---|
E|-----------|----------|------------|----------|

ROGEM - > 1 strum po i2 ha pakingan nyo sa cd pero
	  qng gusto nyo continues strum kyo bahala

VERSE
   B                                                G#m
e|--------------------------------------------------------------|
B|--------------------------------------------------------------|
G|-4------------------------------------------------------------|
D|-4------------------------------------------------6-----------|
A|-2------------------------------------------------6-----------|
E|--------------------------------------------------4-----------|
Kate is a little restless as she wipes her brow and for a second
                 Eb                    C#
e|--------------------------------------------------------------|
B|--------------------------------------------------------------|
G|---------------6--------------------6-------------------------|
D|---------------6--------------------6-------------------------|
A|---------------8--------------------4-------------------------|
E|--------------------------------------------------------------|
She hesitates to move     Its all to soon...


   B                                                G#m
e|--------------------------------------------------------------|
B|--------------------------------------------------------------|
G|-4------------------------------------------------------------|
D|-4------------------------------------------------6-----------|
A|-2------------------------------------------------6-----------|
E|--------------------------------------------------4-----------|
I look inside and feign suspicion   Logic hand in hand with
reason swoons beneath the
                 Eb                    C#
e|--------------------------------------------------------------|
B|--------------------------------------------------------------|
G|---------------6--------------------6-------------------------|
D|---------------6--------------------6-------------------------|
A|---------------8--------------------4-------------------------|
E|--------------------------------------------------------------|
		truth  takes a beating


ROGEM - > ( Struming na d2 ha )

CHORUS
   E                      G#m
e|--------------------------------------------|
B|--------------------------------------------|
G|--------------------------------------------|
D|-2-2-2-2-2-2-----------6-6-6-6-6-6----------|2x
A|-2-2-2-2-2-2-----------6-6-6-6-6-6----------|
E|-0-0-0-0-0-0-----------4-4-4-4-4-4----------|
   Ohhh                  Open up from under me
   Ohhh                   Sing to me a


e|----------------------------|
B|----------------------------|
G|----------------------------|
D|-6-7-7--6-7-7--6-7-7--6-7-7-|
A|-6-7-7--6-7-7--6-7-7--6-7-7-|
E|-4-5-5--4-5-5--4-5-5--4-5-5-|
    remedy

e|----------------------------|
B|----------------------------|
G|--4-66-4-66-4-66--4/6--4-6--|
D|--4-66-4-66-4-66--4/6--4-6--|
A|--2-44-2-44-2-44--2/4--2-4--|
E|----------------------------|

    E Ebm  B Bb B Bb  G#m              E
e|----------------------------------------------------|
B|----------------------------------------------------|
G|--9--8---4--3/4\3-----------------------------------|
D|--9--8---4--3/4\3----6-6-6-6-6-6-6--2-2-2-2-2-2-2-2-|
A|--7--6---2--1/2\1----6-6-6-6-6-6-6--2-2-2-2-2-2-2-2-|
E|---------------------4-4-4-4-4-4-4--0-0-0-0-0-0-0-0-|
   Why cant I sever the ties with the unforgiving sky

                     G#m              E                       F#
e|---------------------------------------------------------------|
B|---------------------------------------------------------------|
G|---------------------------------------------------------------|
D|------------------6-6-6-6-6-6-----2-2-2-2-2-2------------444444|
A|------------------6-6-6-6-6-6-----2-2-2-2-2-2------------444444|
E|------------------4-4-4-4-4-4-----0-0-0-0-0-0------------222222|
The past of all my lies Vestiges of smoke cloud my view of hope
                     G#m              E                       F#
e|---------------------------------------------------------------|
B|---------------------------------------------------------------|
G|---------------------------------------------------------------|
D|------------------6-6-6-6-6-6-----2-2-2-2-2-2------------444444|
A|------------------6-6-6-6-6-6-----2-2-2-2-2-2------------444444|
E|------------------4-4-4-4-4-4-----0-0-0-0-0-0------------222222|
Six feet of concrete right beneath my feet And I am lost again


INTERLUDE
    Eb           B          Eb            C#
e|-----------|----------|------------|----------|
B|-----------|----------|------------|----------|
G|-888888888-|-44444444-|-888888888--|-666666---|
D|-888888888-|-44444444-|-888888888--|-666666---|
A|-666666666-|-22222222-|-666666666--|-444444---|
E|-----------|----------|------------|----------|


VERSE II


   B                                                G#m
e|--------------------------------------------------------------|
B|--------------------------------------------------------------|
G|-4------------------------------------------------------------|
D|-4------------------------------------------------6-----------|
A|-2------------------------------------------------6-----------|
E|--------------------------------------------------4-----------|
Kate is a little hopeless  as  she looks at me and for a second
                 Eb                    C#
e|--------------------------------------------------------------|
B|--------------------------------------------------------------|
G|---------------6--------------------6-------------------------|
D|---------------6--------------------6-------------------------|
A|---------------8--------------------4-------------------------|
E|--------------------------------------------------------------|
She hesitates to move       Its all to soon

   B                                                G#m
e|--------------------------------------------------------------|
B|--------------------------------------------------------------|
G|-4------------------------------------------------------------|
D|-4------------------------------------------------6-----------|
A|-2------------------------------------------------6-----------|
E|--------------------------------------------------4-----------|
Beneath her
facade lies another bewilders me further And I am so endlessly drawn
                 Eb                    C#
e|--------------------------------------------------------------|
B|--------------------------------------------------------------|
G|---------------6--------------------6-------------------------|
D|---------------6--------------------6-------------------------|
A|---------------8--------------------4-------------------------|
E|--------------------------------------------------------------|
Endlessly drawn to the truth   Takes new meaning


CHORUS
   E                      G#m
e|--------------------------------------------|
B|--------------------------------------------|
G|--------------------------------------------|
D|-2-2-2-2-2-2-----------6-6-6-6-6-6----------|2x
A|-2-2-2-2-2-2-----------6-6-6-6-6-6----------|
E|-0-0-0-0-0-0-----------4-4-4-4-4-4----------|
   Ohhh..                Open up from under me
   Ohhh..                 Sing to me a

e|----------------------------|
B|----------------------------|
G|----------------------------|
D|-6-7-7--6-7-7--6-7-7--6-7-7-|
A|-6-7-7--6-7-7--6-7-7--6-7-7-|
E|-4-5-5--4-5-5--4-5-5--4-5-5-|
    remedy

e|----------------------------|
B|----------------------------|
G|--4-66-4-66-4-66--4/6--4-6--|
D|--4-66-4-66-4-66--4/6--4-6--|
A|--2-44-2-44-2-44--2/4--2-4--|
E|----------------------------|


    E Ebm  B Bb B Bb  G#m              E
e|----------------------------------------------------|
B|----------------------------------------------------|
G|--9--8---4--3/4\3-----------------------------------|
D|--9--8---4--3/4\3----6-6-6-6-6-6-6--2-2-2-2-2-2-2-2-|
A|--7--6---2--1/2\1----6-6-6-6-6-6-6--2-2-2-2-2-2-2-2-|
E|---------------------4-4-4-4-4-4-4--0-0-0-0-0-0-0-0-|
   Why cant I sever the ties with the unforgiving sky

                     G#m              E                       F#
e|---------------------------------------------------------------|
B|---------------------------------------------------------------|
G|---------------------------------------------------------------|
D|------------------6-6-6-6-6-6-----2-2-2-2-2-2------------444444|
A|------------------6-6-6-6-6-6-----2-2-2-2-2-2------------444444|
E|------------------4-4-4-4-4-4-----0-0-0-0-0-0------------222222|
The past of all my lies Vestiges of smoke cloud my view of hope

                     G#m              E                       F#
e|---------------------------------------------------------------|
B|---------------------------------------------------------------|
G|---------------------------------------------------------------|
D|------------------6-6-6-6-6-6-----2-2-2-2-2-2------------444444|
A|------------------6-6-6-6-6-6-----2-2-2-2-2-2------------444444|
E|------------------4-4-4-4-4-4-----0-0-0-0-0-0------------222222|
Six feet of concrete right beneath my feet And I am lost again

e|------------------------------|--------------------------------|
B|------------------------------|--------------------------------|
G|------------------------------|--x9---8x9x8x9x-x9--8x9x8x9-----|
D|-6---4x6x4x6-x6---4x6x4x6x----|--x9---8x9x8x9x-x9--8x9x8x9-----|
A|-6---4x6x4x6-x6---4x6x4x6x----|--x7---6x7x6x7x-x7--6x7x6x7-----|
E|-4---2x4x2x4-x4---2x4x2x4x----|--------------------------------|


e|------------------------------|--------------------------------|
B|------------------------------|--------------------------------|
G|------------------------------|--------------------------------|
D|-6---4x6x4x6-x6---4x6x4x-6-6-6|--2---2-2-2-2-2-2-2-------------|
A|-6---4x6x4x6-x6---4x6x4x-6-6-6|--2---2-2-2-2-2-2-2-------------|
E|-4---2x4x2x4-x4---2x4x2x-4-4-4|--0---0-0-0-0-0-0-0-------------|

e|----------------------------------------------------------|
B|----------------------------------------------------------|
G|/9--x8-x4--3/4\3--/9--x8-x4--3/4\3------------------------|
D|/9--x8-x4--3/4\3--/9--x8-x4--3/4\3--x6----x6---x6-8-4-----|
A|/7--x6-x2--1/2\1--/7--x6-x2--1/2\1--x6----x6---x6-8-4-----|
E|------------------------------------x4----x4---x4-6-2-----|

ROGEM - Pluck na po dto pakingan nyo sa cd maganda
	2ng part na 2 favorite ko 2ng part na 2

   F#              G#m             Fm              F#
e|---------------|---------------|---------------|----------------|
B|---------------|---------------|---------------|---4-4---4-4----|
G|----4-4----4-4-|----4-4----4-4-|----1-1----1-1-|--5-5---5-5-----|
D|---5-5----5-5--|---6-6----6-6--|---3-3----3-3--|----------------|
A|---------------|---------------|---------------|----------------|
E|-2------2------|/4------4------|-1------1------|-2-----2--------|

Rogem - pluck pa rin d2 may distortion na d2
        e2 din ung gagamitin sa solo sa solo ung 16b full bend po
	un hangang sa maging atunog nya ung 18 eb- String
	pati ung 12 dapat maging kasing 2nog nya ung 13 pag nag
	full bend kayo

    B                 C#           B                 Bbm
e|---------------|---------------|----------------|---------------|
B|---------------|---------------|----------------|---------------|
G|---------------|---------------|----------------|---------------|
D|----4-4-----4-4|----6-6-----6-6|----4-4-----4-4-|---3-3------3-3|
A|2--2-2--2--2-2-|-4-4-4--4--4-4-|-2-2-2---2-2-2--|1-1-1---1--1-1-|
E|---------------|---------------|----------------|---------------|

SOLO/ADliB
    f.b. f.b
e|--16b-16b----------18\16----16------18~----|
B|-------------------------------------------|
G|-------------------------------------------|
D|-------------------------------------------|
A|-------------------------------------------|
E|-------------------------------------------|
    f.b. f.b
e|--16b-16b-------------------9-------18~----|
B|-------------------9s11--------------------|
G|-------------------------------------------|
D|-------------------------------------------|
A|-------------------------------------------|
E|-------------------------------------------|

e|-----------18-----\9--------11------13-----|
B|--9-7-7------------------------------------|
G|-------------------------------------------|
D|-------------------------------------------|
A|-------------------------------------------|
E|-------------------------------------------|
 	    f.b.
e|-11--17b--12b----11--9----7-6-4------------|
B|----------------------------------7s9-7----|
G|-------------------------------------------|
D|-------------------------------------------|
A|-------------------------------------------|
E|-------------------------------------------|

   F#        F#/F               Ebm              C#
e|--------------------------------------------------------|
B|--------------------------------------------------------|
G|----------------------------8-8-8-8------------7-7-7-7--|
D|-4-4-4-4---3-3-3-3----------8-8-8-8------------7-7-7-7--|
A|-4-4-4-4---4-4-4-4----------6-6-6-6------------5-5-5-5--|
E|-2-2-2-2---1-1-1-1--------------------------------------|
   Lower me evasive as these keep you in my dreams


   F#        F#/F               Ebm              C#
e|--------------------------------------------------------|
B|--------------------------------------------------------|
G|----------------------------8-8-8-8------------7-7-7-7--|
D|-4-4-4-4---3-3-3-3----------8-8-8-8------------7-7-7-7--|
A|-4-4-4-4---4-4-4-4----------6-6-6-6------------5-5-5-5--|
E|-2-2-2-2---1-1-1-1--------------------------------------|
   Lower me illusive as these keep you in my dreams

ROGEM - > Continue nyo lang ung strum hangang sa matapos
	  Last Chord G

|==========================================================================|
|==========================================================================|
|==========================================================================|

|==================================================|
|==================================================|
|						   |
|                     GUNITA-E                     |
|						   |
|==================================================|
|==================================================|


ROGEM -> e2 ung mga riffs sasabay nyo 2 dun sa song
	 nakalagay din d2 kaylan nyo ipplay ung mga
         riffs ginawa talaga 2ng mga riffs na 2 sa
         Bb & Gb Strings kso ung iba mahi2rapan lalo
         na ung gumagamit ng nylon kya gumawa ng nasa
	 Gb and Bb na String

  RIFF I
e|------|  |-2/9--|
B|-7/14-|or|-2/9--|
G|-6/13-|  |------|


  RIFF II
e|------|  |--9\6-|
B|-14\11|or|------|
G|------|  |------|


  RIFF III
e|------|  |-11\6-|
B|-16\11|or|------|
G|------|  |------|


INTRO


VERSE 1:
GTR I
     B           C#	    Ebm		  C#sus/F
e|--2222222-----xxxxxxx----xxxxxxx-------1111111----|
B|--4444444-----6666666----4444444-------2222222----|
G|--4444444-----6666666----6666666-------1111111----|
D|--4444444-----6666666----4444444-------3333333----|
A|--2222222-----4444444----6666666-------xxxxxxx----|
E|---------------------------------------xxxxxxx----|
GTR II
  |--RIFF I-----------------RIFF II-------RIFF I-----|

   Patuloy na pumapatak  Ang bawat sandaling natitira

GTR I
     B           C#	    Ebm
e|--2222222-----xxxxxxx----xxxxxxx------------------|
B|--4444444-----6666666----4444444------------------|
G|--0000000-----2222222----0000000------------------|
D|--4444444-----6666666----4444444------------------|
A|--2222222-----4444444----6666666------------------|
E|--------------------------------------------------|
GTR II
  |--RIFF I-----------------RIFF II------------------|

     Habang ikay kapiling ko


GTR I
     B           C#	    Ebm		  C#sus/F
e|--2222222-----xxxxxxx----xxxxxxx-------1111111----|
B|--4444444-----6666666----4444444-------2222222----|
G|--4444444-----6666666----6666666-------1111111----|
D|--4444444-----6666666----4444444-------3333333----|
A|--2222222-----4444444----6666666-------xxxxxxx----|
E|---------------------------------------xxxxxxx----|
GTR II
  |--RIFF I-----------------RIFF II-------RIFF I-----|
   Siguro ngay maraming dahilanKang maibibigay ngunit


GTR I
     B           C#	    Ebm		  C#sus/F
e|--2222222-----xxxxxxx----xxxxxxx-------1111111----|
B|--4444444-----6666666----4444444-------2222222----|
G|--4444444-----6666666----6666666-------1111111----|
D|--4444444-----6666666----4444444-------3333333----|
A|--2222222-----4444444----6666666-------xxxxxxx----|
E|---------------------------------------xxxxxxx----|
GTR II
e|--------------------------R-------------1~~~~~----|
B|--------------------------I------4------2~~~~~----|
G|--------------------------F-----6-6---------------|
D|--------------------------F----4---4--------------|
A|--------------------------2---6-------------------|
E|--------------------------------------------------|
   Ako ay may isang tanong

CHORUS

GTR I
     B		      F#
e|--2222222----------2222222------------------------|
B|--4444444----------2222222------------------------|
G|--4444444----------3333333------------------------|
D|--4444444----------4444444------------------------|
A|--2222222----------4444444------------------------|
E|-------------------2222222------------------------|
GTR II
e|--1h2-/9------------11s6--------------------------|
B|--2---/9---------------6--------------------------|
   Di ka ba magtatagal


GTR I
     B            Bm           F#
e|--2222222------222----------2222222---------------|
B|--4444444------333----------2222222---------------|
G|--4444444------444----------3333333---------------|
D|--4444444------444----------4444444---------------|
A|--2222222------222----------4444444---------------|
E|----------------------------2222222---------------|
GTR II
e|--1s2s9---------------------7p6-6-----------------|
B|--------------------------------------------------|
    Pagtigil moy dalangin na aking inaasam

GTR I
     B		      F#
e|--2222222----------2222222------------------------|
B|--4444444----------2222222------------------------|
G|--4444444----------3333333------------------------|
D|--4444444----------4444444------------------------|
A|--2222222----------4444444------------------------|
E|-------------------2222222------------------------|
GTR II
e|---1s2s9------------11s6--------------------------|
B|--------------------------------------------------|
       Siguro ngay paalam na


GTR I
     G#m      Bbm   B     C#    F#
e|--4--------1-----2-----4-----2--------------------|
B|--4--------2-----4-----6-----2--------------------|
G|--4--------3-----4-----6-----3--------------------|
D|--6--------3-----4-----6-----4--------------------|
A|--6--------1-----2-----4-----4--------------------|
E|--4--------------------------2--------------------|
GTR II
  |--RIFF-1---------------11h13-14-------------------|
    Subalit may iiwan kang puwang

VERSE II

GTR I
     B           C#	    Ebm		  C#sus/F
e|--2222222-----xxxxxxx----xxxxxxx-------1111111----|
B|--4444444-----6666666----4444444-------2222222----|2x
G|--4444444-----6666666----6666666-------1111111----|sa round 2
D|--4444444-----6666666----4444444-------3333333----|papasok ung
A|--2222222-----4444444----6666666-------xxxxxxx----|GTR II
E|---------------------------------------xxxxxxx----|
GTR II
e|--------------------------R-------------1~~~~~----|
B|--------------------------I------4------2~~~~~----|
G|--------------------------F-----6-6---------------|
D|--------------------------F----4---4--------------|
A|--------------------------2---6-------------------|
E|--------------------------------------------------|
Kung kaya kong pigilan lang ang oras Sa kanyang pintig
Asahan mong akoy di hihinto

CHORUS

GTR I
     B		      F#
e|--2222222----------2222222------------------------|
B|--4444444----------2222222------------------------|
G|--4444444----------3333333------------------------|3x
D|--4444444----------4444444------------------------|
A|--2222222----------4444444------------------------|
E|-------------------2222222------------------------|
GTR II
  |--1s2s9------------RIFF-3-------------------------|
  |------9-------------------------------------------|
       Akoy isang manhid na di makikinig
       Sa bawat sasabihin ng mundo
       Akoy isang manhid na di makikinig


GTR I
     G#m      Bbm   B     C#    F#
e|--4--------1-----2-----4-----2--------------------|
B|--4--------2-----4-----6-----2--------------------|
G|--4--------3-----4-----6-----3--------------------|
D|--6--------3-----4-----6-----4--------------------|
A|--6--------1-----2-----4-----4--------------------|
E|--4--------------------------2--------------------|
      Hanggang ikaw pay naririto
GTR II
e|--------------------------------------------------|
B|--------------------------------------------------|
G|--------------------------------------------------|
D|------------------------------55555555------------|
A|------------------------------55555555------------|
E|------------------------------33333333------------|

SOLO

GTR I
     B           C#	    Ebm		  C#sus/F
e|--2222222-----xxxxxxx----xxxxxxx-------1111111----|
B|--4444444-----6666666----4444444-------2222222----|
G|--4444444-----6666666----6666666-------1111111----|
D|--4444444-----6666666----4444444-------3333333----|
A|--2222222-----4444444----6666666-------xxxxxxx----|
E|---------------------------------------xxxxxxx----|
 GTR II
     C     	 D          Em             D/F#
e|--------------------------------------------------|
B|-6s7----------7s9--------11-11--------------------|
G|--------------------------------------------------|

GTR I
     B           C#	    Ebm
e|--2222222-----xxxxxxx----xxxxxxx------------------|
B|--4444444-----6666666----4444444------------------|
G|--0000000-----2222222----0000000------------------|
D|--4444444-----6666666----4444444------------------|
A|--2222222-----4444444----6666666------------------|
E|--------------------------------------------------|
GTR II
   C              D          Em
e|-6\9----------------------------------------------|
B|-------------11-11--------9--9--------------------|
G|--------------------------------------------------|

GTR I
     B           C#	    Ebm		  C#sus/F
e|--2222222-----xxxxxxx----xxxxxxx-------1111111----|
B|--4444444-----6666666----4444444-------2222222----|
G|--4444444-----6666666----6666666-------1111111----|
D|--4444444-----6666666----4444444-------3333333----|
A|--2222222-----4444444----6666666-------xxxxxxx----|
E|---------------------------------------xxxxxxx----|
GTR II
e|--6s9---------------------------------------------|
B|--------------6-6-7----7-/-14--------11-11s9---9s7|
G|----------------------(6)/(13)--------------------|


GTR I
     B           C#	    Ebm		  C#sus/F
e|--2222222-----xxxxxxx----xxxxxxx-------1111111----|
B|--4444444-----6666666----4444444-------2222222----|
G|--4444444-----6666666----6666666-------1111111----|
D|--4444444-----6666666----4444444-------3333333----|
A|--2222222-----4444444----6666666-------xxxxxxx----|
E|---------------------------------------xxxxxxx----|
GTR II
   C       	 D          Em                D/F#
e|-----------------------------------------------6s9-|
B|-7-/-11------9---9s7-7s6-4--------4-6-7-6-7-9------|
G|(8)/(9)--------------------------------------------|


CHORUS

GTR I
     B		      F#
e|--2222222----------2222222------------------------|
B|--4444444----------2222222------------------------|
G|--4444444----------3333333------------------------|
D|--4444444----------4444444------------------------|
A|--2222222----------4444444------------------------|
E|-------------------2222222------------------------|
GTR II
  |--RIFF-I-----------RIFF-II------------------------|
     Di ka ba magtatagal

GTR I
     B            Bm           F#
e|--2222222------222----------2222222---------------|
B|--4444444------333----------2222222---------------|
G|--4444444------444----------3333333---------------|
D|--4444444------444----------4444444---------------|
A|--2222222------222----------4444444---------------|
E|----------------------------2222222---------------|
GTR II
e|--R-----------------------------------------------|
B|--I-----------------------------------------------|
G|--F-----------------------------------------------|
D|--F----------------------------8------------------|
A|--1-------------------------4s-9------------------|
E|--------------------------------------------------|
Pagtigil moy dalangin na aking inaasam

GTR I
     B		      F#
e|--2222222----------2222222------------------------|
B|--4444444----------2222222------------------------|
G|--4444444----------3333333------------------------|
D|--4444444----------4444444------------------------|
A|--2222222----------4444444------------------------|
E|-------------------2222222------------------------|
GTR II
e|--2s11--------------------------------------------|
B|--------------------2s9---------------------------|
G|----------------------8---------------------------|
D|--------------------------------------------------|
A|--------------------------------------------------|
E|--------------------------------------------------|
     Siguro ngay paalam na


GTR I
     G#m      Bbm   B     C#    F#
e|--4--------1-----2-----4-----2--------------------|
B|--4--------2-----4-----6-----2--------------------|
G|--4--------3-----4-----6-----3--------------------|
D|--6--------3-----4-----6-----4--------------------|
A|--6--------1-----2-----4-----4--------------------|
E|--4--------------------------2--------------------|
GTR II
e|--2s15------------7s11--18------------------------|
B|--------------------------------------------------|
G|--------------------------------------------------|
D|--------------------------------------------------|
A|--------------------------------------------------|
E|--------------------------------------------------|
Subalit may iiwan kang puwang


GTR I
     B           C#	    Ebm		  C#sus/F
e|--2222222-----xxxxxxx----xxxxxxx-------1111111----|
B|--4444444-----6666666----4444444-------2222222----|
G|--4444444-----6666666----6666666-------1111111----|
D|--4444444-----6666666----4444444-------3333333----|
A|--2222222-----4444444----6666666-------xxxxxxx----|
E|---------------------------------------xxxxxxx----|
Patuloy na pumapatak  Ang bawat sandaling natitira

GTR I
     B           C#	    Ebm
e|--2222222-----xxxxxxx----xxxxxxx------------------|
B|--4444444-----6666666----4444444------------------|
G|--0000000-----2222222----0000000------------------|
D|--4444444-----6666666----4444444------------------|
A|--2222222-----4444444----6666666------------------|
E|--------------------------------------------------|
GTR II
  |-------------------------RIFF II------------------|
  Habang ikay kapiling ko

|==========================================================================|
|==========================================================================|
|==========================================================================|

|==================================================|
|==================================================|
|						   |
|            DO YOU KNOW THIS FEELING-E            |
|						   |
|==================================================|
|==================================================|

GTR I
    C#		C#/C       Fm		F
e|-----------|----------|----------|----------|
B|-----------|----------|----------|----------|
G|-66666666--|-55555555-|----------|----------|4x
D|-66666666--|-66666666-|-33333333-|-44444444-|
A|-44444444--|-33333333-|-33333333-|-44444444-|
E|-----------|----------|-11111111-|-22222222-|
GTR II
e|--9------------|
B|-9-9---8-10-11-| papasok to sa 3r & 4rt round
G|-------8-10-11-| gawin nyo 2 sa bawat chords ha
D|---------------|
A|---------------|
E|---------------|

I look back to me and what do i see It must have been 1993
Had no other care but the wave of your hair and the way you
wouldnt-look at me
What happened that day has managed to stay through a decade worth
of-misery
But what did I miss, a moment of bliss the best of all the years
gone by

e|----------|
B|----------|
G|----------|
D|-6-6------|
A|-6-6------|
E|-4-4------|

CHORUS

   F#              G#
e|--------------|---------|
B|--------------|---------|
G|--------------|---------|3x
D|-444444444444-|-6-6-----|
A|-444444444444-|-6-6-----|
E|-222222222222-|-4-4-----|
   Do you know the feeling
   Do you know the feeling
   Do you know the feeling
e|----------|
B|----------|
G|----------|
D|-44444444-|
A|-44444444-|
E|-22222222-|
   Do you know the feeling

   Ebm         Fm          F#          G#               G#
e|----------|----------|----------|----------|    |---------|
B|----------|----------|----------|----------|    |---------|
G|-88888888-|----------|----------|----------| 2x |---------|
D|-88888888-|-33333333-|-44444444-|-66666666-|then|-6-6-----|
A|-66666666-|-33333333-|-44444444-|-66666666-|	   |-6-6-----|
E|----------|-11111111-|-22222222-|-44444444-|    |-4-4-----|
   I want to hold your hand and try| to dance but I cant
   I want this just one kiss the years fall away


   F#              G#
e|--------------|---------|
B|--------------|---------|
G|--------------|---------|3x
D|-444444444444-|-6-6-----|
A|-444444444444-|-6-6-----|
E|-222222222222-|-4-4-----|
   Do you know the feeling
   Do you know the feeling
   Do you know the feeling
e|----------|
B|----------|
G|----------|
D|-44444444-|
A|-44444444-|
E|-22222222-|
  Do you know the
   Ebm         Fm          F#          G#
e|----------|----------|----------|----------|
B|----------|----------|----------|----------|
G|-88888888-|----------|----------|----------|3x
D|-88888888-|-33333333-|-44444444-|-66666666-|
A|-66666666-|-33333333-|-44444444-|-66666666-|
E|----------|-11111111-|-22222222-|-44444444-|
   I want to hold your hand but time moves faster now that
   I stand still so speechless how can I bridge the distance
   It just might feel so right if you could hold me tonight

   Bbm              B        F#         G#
e|----------|----------|----------|----------|
B|----------|----------|----------|----------|
G|-33333333-|-44444444-|----------|----------|
D|-33333333-|-44444444-|-44444444-|-----6----|
A|-11111111-|-22222222-|-44444444-|-----6----|
E|----------|----------|-22222222-|-----4----|
   I want this just one kiss The years fall away

SOLO

e|-----------------------------|
B|-----------------------------|
G|-8/10-8-6---6-----6--6-------|
D|----------8--6h8---8----6-6--|
A|------------------------6-6--|
E|------------------------4-4--|

GTR I
    F#		   A
e|--------------|--------|
B|--------------|--------|
G|--------------|--------|
D|-444444444444-|--------|
A|-444444444444-|-3-4----|
E|-222222222222-|-----4--|

GTR II
e|------------------------9--9---11s13-13-13s11-9-----------|
B|-------------------8s11------11--------------------9------|
G|8s10-8-8-6------------------------------------------------|
D|-----------8----------------------------------------------|
A|----------------------------------------------------------|
E|----------------------------------------------------------|

ROGEM - > full bend nyo ung 17b ha hangang maging
	  kasing 2nog nya ung 18 eb String ung 20 half bend
	  lang

GTR II
    f.b.  f.b.  f.b.            h.b.
e|-17b---17b---17b--18p17p15---20b-----21-21-21-18-18-------|
B|----------------------------------------------------------|
G|----------------------------------------------------------|
D|----------------------------------------------------------|
A|----------------------------------------------------------|
E|----------------------------------------------------------|


CHORUS
GTR I
e|------------------|
B|------------------|
G|------------------|
D|-4----------------|2x
A|-4--------3-4-----|
E|-2------------4---|
Do you know the feeling
Do you know the feeling

GTR I
e|------------------|
B|------------------|
G|------------------|
D|-4----------------|
A|-4--------3-4-----|
E|-2------------4---|
GTR II
e|--8b--------|
B|--8b--------|
G|------------|
D|------------|
A|------------|
E|------------|
Do you know the feeling

   F#
e|-------------------|
B|-------------------|
G|-------------------|
D|-4-x-x-x-x---------|
A|-4-x-x-x-x---------|
E|-2-x-x-x-x-2/10\---|
   Do you know that

   Ebm         Fm          F#          G#
e|----------|----------|----------|----------|
B|----------|----------|----------|----------|
G|-88888888-|----------|----------|----------|2x
D|-88888888-|-33333333-|-44444444-|-66666666-|
A|-66666666-|-33333333-|-44444444-|-66666666-|
E|----------|-11111111-|-22222222-|-44444444-|
   I want this just one kiss tonight its all that matters
   I want this just one kis and it will all be over

GTR I

   Fm          Gm         G#             Bb
e|----------|----------|----------|----------|
B|----------|----------|----------|----------|
G|----------|----------|----------|----------|4x
D|-33333333-|-55555555-|-66666666-|-88888888-|GTR II
A|-33333333-|-55555555-|-66666666-|-88888888-|sa 3rd
E|-11111111-|-33333333-|-44444444-|-66666666-|round

GTR II
e|----------|----------|----------|----------|
B|-44444444-|-66666666-|-88888888-|-11(8x)---|
G|----------|----------|----------|----------|
D|----------|----------|----------|----------|
A|----------|----------|----------|----------|
E|----------|----------|----------|----------|
   Whenever, wherever lets finish what we started
   From back then, my silence spoke through a ten year absence
   In secret still feel it just take my hand and follow
   Walk with me til tomorrow you wont have to dance

VERSE III

    Eb         Eb/D       Gm          G#
e|----------|----------|----------|----------|
B|----------|----------|----------|----------|
G|-88888888-|-77777777-|----------|----------|
D|-88888888-|-88888888-|-55555555-|-66666666-|
A|-66666666-|-55555555-|-55555555-|-66666666-|
E|----------|----------|-33333333-|-44444444-|
Now Dat I c yuve grown out of me I guess its back to reality
One night at the park held your hands in the park made some promises we
couldnt keep
Some days I had won now here i am on, a tym and place apart from me
And what did I miss, a moment of bliss the best of all the years
gone by


   G#
e|---------|
B|---------|
G|---------|
D|-6-------|
A|-6-------|
E|-4-------|

|==========================================================================|
|==========================================================================|
|==========================================================================|


|==================================================|
|==================================================|
|						   |
|          SA BINGIT NG ISANG PAALAM-E             |
|						   |
|==================================================|
|==================================================|
VERSE I
GTR I
       E           Bm         F#m       A
eb|----0-----------2----------2---------0----0--|
Bb|----0-----------3----------2---------2---2---|
Gb|----1-----------4----------2---------2-------|
Db|----2-----------4----------4---------2-------|
Ab|----2-----------2----------4---------0-------|
Eb|----0-----------x----------2---------x-------|

ROGEM - Sa verse tag isang strum lang

E
Sa isang tingin ko lang
		Bm
Agad ko nang napupuna
F#m
Sa likod ng yong ngiti
Bb
At kung paano ka tumitig sakin

( ROGEM ) d2 strumming na

E
Tulad ng unang bituing
	Bm
Iyong matatanaw
F#m
Sa nag-aambang dilim
A
Buong ningning parin kahit makain


REFRAIN
     C#m      G#m           A              E  -  B
e|-444444-|--444444----|---000000----|-----0-0--2-|
B|-555555-|--444444----|---222222----|-----0-0--4-|
G|-666666-|--444444----|---222222----|-----1-1--4-|
D|-666666-|--666666----|---222222----|-----2-2--4-|
A|-444444-|--666666----|---000000----|-----2-2--2-|
E|-xxxxxx-|--444444----|---xxxxxx----|-----0-0--x-|
Kinakailangan nga bang magtuos Wala tayong dapat simulan
     C#m      G#m            F#m            A
e|-444444-|--444444----|---222222----|-----0----0-|
B|-555555-|--444444----|---222222----|-----2---2--|
G|-666666-|--444444----|---222222----|-----2------|
D|-666666-|--666666----|---444444----|-----2------|
A|-444444-|--666666----|---444444----|-----0------|
E|-xxxxxx-|--444444----|---222222----|-----x------|
Akoy kaharap mot nandito ngayon Sabihin kung naguguluhan


CHORUS

    E                G#m
e|-0-0-0-0-0-0-0--|-4-4-4-4-4-4-4--|
B|-0-0-0-0-0-0-0--|-4-4-4-4-4-4-4--|
G|-1-1-1-1-1-1-1--|-4-4-4-4-4-4-4--|
D|-2-2-2-2-2-2-2--|-6-6-6-6-6-6-6--|
A|-2-2-2-2-2-2-2--|-6-6-6-6-6-6-6--|
E|-0-0-0-0-0-0-0--|-4-4-4-4-4-4-4--|
    E		     G#m
sa isang paalam lamang ba lahat magtatapos

    C#m		     B                A
e|-4-4-4-4-4-4-4--|-2-2-2-2-2-2-2--|-0000-------|
B|-5-5-5-5-5-5-5--|-3-3-3-3-3-3-3--|-2222-------|
G|-6-6-6-6-6-6-6--|-3-3-3-3-3-3-3--|-2222-------|
D|-6-6-6-6-6-6-6--|-3-3-3-3-3-3-3--|-2222-------|
A|-4-4-4-4-4-4-4--|-2-2-2-2-2-2-2--|-0000-------|
E|----------------|----------------|------------|
    C#m                B         A
  Sa isang saglit lahat malilipol


    E                G#m
e|-0-0-0-0-0-0-0--|-4-4-4-4-4-4-4--|
B|-0-0-0-0-0-0-0--|-4-4-4-4-4-4-4--|
G|-1-1-1-1-1-1-1--|-4-4-4-4-4-4-4--|
D|-2-2-2-2-2-2-2--|-6-6-6-6-6-6-6--|
A|-2-2-2-2-2-2-2--|-6-6-6-6-6-6-6--|
E|-0-0-0-0-0-0-0--|-4-4-4-4-4-4-4--|
E                    G#m
Di ko mahahayaan na walang magagawa

    C#m		     B                A
e|-4-4-4-4-4-4-4--|-2-2-2-2-2-2-2--|-0------0---|
B|-5-5-5-5-5-5-5--|-3-3-3-3-3-3-3--|-2----2-----|
G|-6-6-6-6-6-6-6--|-3-3-3-3-3-3-3--|-2----------|
D|-6-6-6-6-6-6-6--|-3-3-3-3-3-3-3--|-2----------|
A|-4-4-4-4-4-4-4--|-2-2-2-2-2-2-2--|-0----------|
E|----------------|----------------|------------|
   C#m	     B          A
Ayaw kitang lumuhang nag-iisa


VERSE II
GTR I
       E           Bm         F#m           A
e|----0-0-0-0-0---2-2-2-2-2--2-2-2-2-2-----0-----0-|
B|----0-0-0-0-0---3-3-3-3-3--2-2-2-2-2-----2---2---|
G|----1-1-1-1-1---4-4-4-4-4--2-2-2-2-2-----2-------|
D|----2-2-2-2-2---4-4-4-4-4--4-4-4-4-4-----2-------|
A|----2-2-2-2-2---2-2-2-2-2--4-4-4-4-4-----0-------|
E|----0-0-0-0-0---x-X-X-X-X--2-2-2-2-2-----x-------|
GTR II
       E           Bm         F#m           A
e|-----------------2--2------9-------------0-5-----|
B|-----------------3--3------9-----------2---------|
G|-----------------4-------------------------------|
D|-------------------------------------------------|
A|-------------------------------------------------|
E|-------------------------------------------------|
E                          Bm
Pasensya nat akoy muling nauutal
F#m
Bumabagal ang pintig
A
Bumibigat laman ng aking dibdib

GTR I
       E           Bm         F#m           A
e|----0-0-0-0-0---2-2-2-2-2--2-2-2-2-2-----0-----0-|
B|----0-0-0-0-0---3-3-3-3-3--2-2-2-2-2-----2---2---|
G|----1-1-1-1-1---4-4-4-4-4--2-2-2-2-2-----2-------|
D|----2-2-2-2-2---4-4-4-4-4--4-4-4-4-4-----2-------|
A|----2-2-2-2-2---2-2-2-2-2--4-4-4-4-4-----0-------|
E|----0-0-0-0-0---x-X-X-X-X--2-2-2-2-2-----x-------|
GTR II
       E           Bm         F#m           A
e|-----------------2--2------9------------9--------|
B|-----------------3--3------9-------------10------|
G|-----------------4-------------------------------|
D|-------------------------------------------------|
A|-------------------------------------------------|
E|-------------------------------------------------|
E                           Bm
Hayaan mong hawakan ko ang yong kamay
F#m                        A
Upang mapawi ang lamig ng init pang nararamdaman


REFRAIN
     C#m      G#m           A              E  -  B
e|-444444-|--444444----|---000000----|-----0-0--2-|
B|-555555-|--444444----|---222222----|-----0-0--4-|
G|-666666-|--444444----|---222222----|-----1-1--4-|
D|-666666-|--666666----|---222222----|-----2-2--4-|
A|-444444-|--666666----|---000000----|-----2-2--2-|
E|-xxxxxx-|--444444----|---xxxxxx----|-----0-0--x-|
Kailangan nating isiping lubos Ano nga bang ating dahilan
     C#m      G#m            F#m            A
e|-444444-|--444444----|---222222----|-----0----0-|
B|-555555-|--444444----|---222222----|-----2---2--|
G|-666666-|--444444----|---222222----|-----2------|
D|-666666-|--666666----|---444444----|-----2------|
A|-444444-|--666666----|---444444----|-----0------|
E|-xxxxxx-|--444444----|---222222----|-----x------|
San nga ba tayo nakatuon Kay rami nang mga nagdaan

CHORUS
    E                G#m
e|-0-0-0-0-0-0-0--|-4-4-4-4-4-4-4--|
B|-0-0-0-0-0-0-0--|-4-4-4-4-4-4-4--|
G|-1-1-1-1-1-1-1--|-4-4-4-4-4-4-4--|
D|-2-2-2-2-2-2-2--|-6-6-6-6-6-6-6--|
A|-2-2-2-2-2-2-2--|-6-6-6-6-6-6-6--|
E|-0-0-0-0-0-0-0--|-4-4-4-4-4-4-4--|
    E		     G#m
sa isang paalam lamang ba lahat magtatapos

    C#m		     B                A
e|-4-4-4-4-4-4-4--|-2-2-2-2-2-2-2--|-0000-------|
B|-5-5-5-5-5-5-5--|-3-3-3-3-3-3-3--|-2222-------|
G|-6-6-6-6-6-6-6--|-3-3-3-3-3-3-3--|-2222-------|
D|-6-6-6-6-6-6-6--|-3-3-3-3-3-3-3--|-2222-------|
A|-4-4-4-4-4-4-4--|-2-2-2-2-2-2-2--|-0000-------|
E|----------------|----------------|------------|
    C#m                B         A
  Sa isang saglit lahat malilipol

    E                G#m
e|-0-0-0-0-0-0-0--|-4-4-4-4-4-4-4--|
B|-0-0-0-0-0-0-0--|-4-4-4-4-4-4-4--|
G|-1-1-1-1-1-1-1--|-4-4-4-4-4-4-4--|
D|-2-2-2-2-2-2-2--|-6-6-6-6-6-6-6--|
A|-2-2-2-2-2-2-2--|-6-6-6-6-6-6-6--|
E|-0-0-0-0-0-0-0--|-4-4-4-4-4-4-4--|
E                    G#m
Di ko mahahayaan na walang magagawa

    C#m		     B                A
e|-4-4-4-4-4-4-4--|-2-2-2-2-2-2-2--|-0------0---|
B|-5-5-5-5-5-5-5--|-3-3-3-3-3-3-3--|-2----2-----|
G|-6-6-6-6-6-6-6--|-3-3-3-3-3-3-3--|-2----------|
D|-6-6-6-6-6-6-6--|-3-3-3-3-3-3-3--|-2----------|
A|-4-4-4-4-4-4-4--|-2-2-2-2-2-2-2--|-0----------|
E|----------------|----------------|------------|
   C#m	     B          A
Ayaw kitang lumuhang nag-iisa


GTR I
    F#m	    G#m  A
e|-222222--4--55555-|
B|-222222--4--55555-|
G|-222222--5--66666-|
D|-444444--6--77777-|
A|-444444--6--77777-|
E|-222222--4--55555-|
GTR II
e|-xxxxxx--x--xxxxx-|
B|-xxxxxx--x--xxxxx-|
G|-xxxxxx--x--xxxxx-|
D|-444444--6--77777-|
A|-444444--6--77777-|
E|-222222--4--55555-|
F#m                     G#m  A
Kung meron lang ako ng pagkakataong
F#m             G#m  A
Sabihin sayo ang lahat


INTERLUDE


e|------------------------------------------------------|
B|------------------------------------------------------|
G|-4-4---6-----------------------------6-6---4-4--------|
D|-4-4---6-----6-6-7-7-----4-4---2-----6-6---4-4--------|
A|-2-2---4-----6-6-7-7-----4-4---2-----4-4---2-2--------|
E|-------------4-4-5-5-----2-2---0----------------------|


e|------------------------------------------------------|
B|------------------------------------------------------|
G|-4-4---6-----------------------------x-x-----4--------|
D|-4-4---6-----6-6-7-7-----4-4---2-----x-x-----4--------|
A|-2-2---4-----6-6-7-7-----4-4---2-----x-x-----2--------|
E|-------------4-4-5-5-----2-2---0----------------------|
VERSE 3

GTR I
       E           Bm         F#m       A
e|----0-----------2----------2---------0-------|
B|----0-----------3----------2---------2-------|
G|----1-----------4----------2---------2-------|
D|----2-----------4----------4---------2-------|
A|----2-----------2----------4---------0-------|
E|----0-----------x----------2---------x-------|
GTR II
      E           Bm         F#m       A
e|----------------2-2-2-2----2-2-2-2---5-5-5-5-|
B|-----------------3-3-3-3----2-2-2-2---5-5-5-5|
G|---------------------------------------------|
D|---------------------------------------------|
A|---------------------------------------------|
E|---------------------------------------------|


E
Maya mayay
              Bm
Di na rin magtatagal
F#m
Matatapos ang gabit
      A
Ang nagdaay di na mananatili


REFRAIN
     C#m      G#m            F#m            A
e|-444444-|--444444----|---222222----|-----0----0-|
B|-555555-|--444444----|---222222----|-----2---2--|
G|-666666-|--444444----|---222222----|-----2------|
D|-666666-|--666666----|---444444----|-----2------|
A|-444444-|--666666----|---444444----|-----0------|
E|-xxxxxx-|--444444----|---222222----|-----x------|
GTR II
     C#m            G#m            F#m         A
e|-12--12--12--12---7-7-7-7-----2-2-2-2-------5x-|
B|---14--14--14--14--9-9-9-9----2-2-2-2-------5x-|
G|-----------------------------------------------|
D|-----------------------------------------------|
A|-----------------------------------------------|
E|-----------------------------------------------|
Saan nga ba tayo nakatuon Ano nga bang ating dahilan


CHORUS
    E                G#m
e|-0-0-0-0-0-0-0--|-4-4-4-4-4-4-4--|
B|-0-0-0-0-0-0-0--|-4-4-4-4-4-4-4--|
G|-1-1-1-1-1-1-1--|-4-4-4-4-4-4-4--|
D|-2-2-2-2-2-2-2--|-6-6-6-6-6-6-6--|
A|-2-2-2-2-2-2-2--|-6-6-6-6-6-6-6--|
E|-0-0-0-0-0-0-0--|-4-4-4-4-4-4-4--|
    E		     G#m
sa isang paalam lamang ba lahat magtatapos

    C#m		     B                A
e|-4-4-4-4-4-4-4--|-2-2-2-2-2-2-2--|-0000-------|
B|-5-5-5-5-5-5-5--|-3-3-3-3-3-3-3--|-2222-------|
G|-6-6-6-6-6-6-6--|-3-3-3-3-3-3-3--|-2222-------|
D|-6-6-6-6-6-6-6--|-3-3-3-3-3-3-3--|-2222-------|
A|-4-4-4-4-4-4-4--|-2-2-2-2-2-2-2--|-0000-------|
E|----------------|----------------|------------|
    C#m                B         A
  Sa isang saglit lahat malilipol

    E                G#m
e|-0-0-0-0-0-0-0--|-4-4-4-4-4-4-4--|
B|-0-0-0-0-0-0-0--|-4-4-4-4-4-4-4--|
G|-1-1-1-1-1-1-1--|-4-4-4-4-4-4-4--|
D|-2-2-2-2-2-2-2--|-6-6-6-6-6-6-6--|
A|-2-2-2-2-2-2-2--|-6-6-6-6-6-6-6--|
E|-0-0-0-0-0-0-0--|-4-4-4-4-4-4-4--|
E                    G#m
Di ko mahahayaan na walang magagawa

    C#m		     B                A
e|-4-4-4-4-4-4-4--|-2-2-2-2-2-2-2--|-0------0---|
B|-5-5-5-5-5-5-5--|-3-3-3-3-3-3-3--|-2----2-----|
G|-6-6-6-6-6-6-6--|-3-3-3-3-3-3-3--|-2----------|
D|-6-6-6-6-6-6-6--|-3-3-3-3-3-3-3--|-2----------|
A|-4-4-4-4-4-4-4--|-2-2-2-2-2-2-2--|-0----------|
E|----------------|----------------|------------|
   C#m	     B          A
Ayaw kitang lumuhang nag-iisa

GTR I
e|-333333--5--66666-|
B|-333333--5--66666-|
G|-333333--6--77777-|
D|-555555--7--88888-|
A|-555555--7--88888-|
E|-333333--5--66666-|
GTR II
e|-xxxxxx--x--xxxxx-|
B|-xxxxxx--x--xxxxx-|
G|-xxxxxx--x--xxxxx-|
D|-555555--7--88888-|
A|-555555--7--88888-|
E|-333333--5--66666-|
Kung meron lang ako ng pagkakataong
Kung meron lang ako ng pagkakataong
e|----------|
B|----------|
G|-----x----|
D|-----x----|
A|----------|
E|----------|
Sabihin sayo ang lahat

|==========================================================================|
|==========================================================================|
|==========================================================================|


|==================================================|
|==================================================|
|						   |
|                MY SELF IN YOU-E                  |
|						   |
|==================================================|
|==================================================|

INTRO

GTR I
e|----------------------------------------------------------------|
B|----------------------------------------------------------------|
G|--4--5---7---9----4--4--5---7---9---4--4--5---7---9--5-5---4-4--|
D|--4--4---8---9----4--4--4---8---9---4--4--4---8---9--6-6---4-4--|4x
A|-----------------------------------------------------6-6---4-4--|
E|----------------------------------------------------------------|

GTR II pasok 2 sa 2nd round pagkastapos n2 ung Round 3 naman
e|----------------------------------------------------------------|
B|----------------------------------------------------------------|
G|---------------3s4--------------3s4-----------------------------|
D|----------------------------------------------------------------|
A|----------------------------------------------------------------|
E|----------------------------------------------------------------|

GTR II 3rd Round
e|--------------4-----------------4-----------------4--55555555---|
B|--4h5-4h5-4h5-5-----4h5-4h5-4h5-5-----4h5-4h5-4h5-5--55555555---|
G|44----------------44----------------44--------------------------|2x
D|----------------------------------------------------------------|
A|----------------------------------------------------------------|
E|----------------------------------------------------------------|

VERSE I

ROGEM - e2 gagamitin nyo dun sa Verse ha sa
	bawat chord gagawin 2 ng GTR I hindi
	GTR II
GTR I
    E           C#m        G#m         A
e|----------|----------|----------|------0---|
B|-5--------|--5-------|-----4----|----2-----|
G|-4--------|--6-------|----4-----|--2-------|2x
D|-2--------|--6-------|---6------|----------|
A|----------|----------|----------|-0--------|
E|----------|----------|--4-------|----------|
I'll find a way to come home to you
Tomorrows not that far away


GTR I
    E           C#m        G#m         A
e|----------|----------|----------|------0---|
B|-5--------|--5-------|-----4----|----2-----|
G|-4--------|--6-------|----4-----|--2-------|
D|-2--------|--6-------|---6------|----------|
A|----------|----------|----------|-0--------|
E|----------|----------|--4-------|----------|
GTR II
    E           C#m        G#m         A
e|-7s12-----|----------|-7-7------|----------|
B|----------|----------|--7-7-----|----------|
G|----------|----------|----------|----------|
D|----------|----------|----------|----------|
A|----------|----------|----------|----------|
E|----------|----------|----------|----------|
I kiss your lips in my head, every night


GTR I
    E           C#m        G#m         A
e|----------|----------|----------|------0---|
B|-5--------|--5-------|-----4----|----2-----|
G|-4--------|--6-------|----4-----|--2-------|
D|-2--------|--6-------|---6------|----------|
A|----------|----------|----------|-0--------|
E|----------|----------|--4-------|----------|
GTR II
   E           C#m        G#m         A
e|-7s12-----|----------|-7-7------|--12-12-12|
B|----------|----------|--7-7-----|--12-12-12|
G|----------|----------|----------|----------|
D|----------|----------|----------|----------|
A|----------|----------|----------|----------|
E|----------|----------|----------|----------|
  I dream about the endless fire, the flaming sky


REFRAIN

GTR I
   G#m	      A	       F#m       B
e|-44444--|-00000--|-22222--|-22222--|
B|-44444--|-22222--|-22222--|-44444--|
G|-44444--|-22222--|-22222--|-44444--|
D|-66666--|-22222--|-44444--|-44444--|
A|-66666--|-00000--|-44444--|-22222--|
E|-44444--|-xxxxx--|-22222--|-xxxxx--|
GTR II
e|---9----|--------|----9-11|--------|
B|9------9|--------|-9------|--------|
G|--------|--------|--------|--------|
Find me, coz im lost in this reality

GTR I
    G#m	      A	       F#m       B
e|-44444--|-00000--|-22222--|-22222--|
B|-44444--|-22222--|-22222--|-44444--|
G|-44444--|-22222--|-22222--|-44444--|
D|-66666--|-22222--|-44444--|-44444--|
A|-66666--|-00000--|-44444--|-22222--|
E|-44444--|-xxxxx--|-22222--|-xxxxx--|
GTR II
e|---9----|--------|----9-11|--11(8x)|
B|9------9|--------|-9------|--------|
G|--------|--------|--------|--------|
Find me, coz ill let you, ill let you


CHORUS
GTR I
    A	      G#m	    B
e|-000000-|-444444-|-----22222222----|
B|-222222-|-444444-|-----44444444----|
G|-222222-|-444444-|-----44444444----|2x
D|-222222-|-666666-|-----44444444----|
A|-000000-|-666666-|-----22222222----|
E|--------|-444444-|-----------------|
GTR II
e|7-7-7-7\|-7/9\7--|-12-12-12-12---12-12-12-12-|
B|--------|-7/9\7--|-12-12-12-12---12-12-12-12-|
G|--------|--------|---------------------------|
A G#m        B
I    just want to say, please just stay with me
I     am not ashamed to be the same with you

GTR I
    A	    G#m      C#m      F#m     A      B
e|-00000-|-44444-|-44444-|-22222-|-00000-|-2222-|
B|-22222-|-44444-|-55555-|-22222-|-22222-|-4444-|
G|-22222-|-44444-|-66666-|-22222-|-22222-|-4444-|
D|-22222-|-66666-|-66666-|-44444-|-22222-|-4444-|
A|-00000-|-66666-|-44444-|-44444-|-00000-|-2222-|
E|-------|-44444-|-------|-22222-|-------|------|
GTR II
e|-----4-|-------|2-2-2-2|4-4-4-4|-------|---7--|-------|
B|-5-7---|-------|3-3-3-3|5-5-5-5|-------|-7-7-7|5555555|
G|-------|-------|-------|-------|-------|------|-------|
    A-G#m  	   C#m-F#m 		A-B
    I      	   I     	I find myself in you


INTERLUDE

GTR I
e|----------------------------------------------------------------|
B|----------------------------------------------------------------|
G|--4--5---7---9----4--4--5---7---9---4--4--5---7---9--5-5---4-4--|
D|--4--4---8---9----4--4--4---8---9---4--4--4---8---9--6-6---4-4--|2x
A|-----------------------------------------------------6-6---4-4--|
E|----------------------------------------------------------------|
GTR II pasok sa 2nd Round
e|--------------4-----------------4-----------------4--55555555---|
B|--4h5-4h5-4h5-5-----4h5-4h5-4h5-5-----4h5-4h5-4h5-5--55555555---|
G|44----------------44----------------44--------------------------|
D|----------------------------------------------------------------|
A|----------------------------------------------------------------|
E|----------------------------------------------------------------|

GTR I
    E           C#m        G#m         A
e|----------|----------|----------|------0---|
B|-5--------|--5-------|-----4----|----2-----|
G|-4--------|--6-------|----4-----|--2-------|4x
D|-2--------|--6-------|---6------|----------|
A|----------|----------|----------|-0--------|
E|----------|----------|--4-------|----------|


E          C#m          G#m         A
Ive sat before on the floor of my room
E             C#m             G#m             A
I always thought that it would be like this real soon

E             C#m            G#m              A
But now your here, nothing to fear with those eyes
E             C#m            G#m              A
I cant explain why i grow weak when you look into mine


REFRAIN

GTR I
   G#m	      A	       F#m       B
e|-44444--|-00000--|-22222--|-22222--|
B|-44444--|-22222--|-22222--|-44444--|
G|-44444--|-22222--|-22222--|-44444--|
D|-66666--|-22222--|-44444--|-44444--|
A|-66666--|-00000--|-44444--|-22222--|
E|-44444--|-xxxxx--|-22222--|-xxxxx--|
GTR II
e|---9----|--------|----9-11|--------|
B|9------9|--------|-9------|--------|
G|--------|--------|--------|--------|
G#m      A        F#m            B
Find me, coz im lost in this reality


GTR I
   G#m	      A	       F#m       B
e|-44444--|-00000--|-22222--|-22222--|
B|-44444--|-22222--|-22222--|-44444--|
G|-44444--|-22222--|-22222--|-44444--|
D|-66666--|-22222--|-44444--|-44444--|
A|-66666--|-00000--|-44444--|-22222--|
E|-44444--|-xxxxx--|-22222--|-xxxxx--|
GTR II
e|---9----|--------|----9-11|--------|
B|9------9|--------|-9------|--------|
G|--------|--------|--------|--------|
G#m      A        F#m            B
Find me, coz ill let you, ill let you

CHORUS
GTR I
    A	      G#m	    B
e|-000000-|-444444-|-----22222222----|
B|-222222-|-444444-|-----44444444----|
G|-222222-|-444444-|-----44444444----|2x
D|-222222-|-666666-|-----44444444----|
A|-000000-|-666666-|-----22222222----|
E|--------|-444444-|-----------------|
GTR II
e|7-7-7-7\|-7/9\7--|-12-12-12-12---12-12-12-12-|
B|--------|-7/9\7--|-12-12-12-12---12-12-12-12-|
G|--------|--------|---------------------------|

A G#m       B
I    just want to say, please just stay with me
I     am not ashamed to be the same with you

GTR I
    A	    G#m      C#m      F#m     A      B
e|-00000-|-44444-|-44444-|-22222-|-00000-|-2222-|
B|-22222-|-44444-|-55555-|-22222-|-22222-|-4444-|
G|-22222-|-44444-|-66666-|-22222-|-22222-|-4444-|
D|-22222-|-66666-|-66666-|-44444-|-22222-|-4444-|
A|-00000-|-66666-|-44444-|-44444-|-00000-|-2222-|
E|-------|-44444-|-------|-22222-|-------|------|

e|-----4-|-------|-------|-------|-------|------|
B|-5-7---|-------|-------|-------|-------|-5(7x)|
G|-------|-------|-------|-------|-------|------|
    A-G#m  	   C#m-F#m 		A-B
    I      	   I     	I find myself in you


ROGEM - d2 sa interlude medyo pinag dikit2x ko na ung
        sa 14 & 12 fourteen and twelve un hindi
        1,4 & 1,2

INTERLUDE GTR I - E C#m G#m A (2x)
GTR II part 1
e|-7-999--7-7-7--999--7-7-7--999--7-7-7--999----------------------|
B|-7-777--7-7-7--777--7-7-7--777--7-7-7--777----------------------|
G|----------------------------------------------------------------|
D|----------------------------------------------------------------|
A|----------------------------------------------------------------|
E|----------------------------------------------------------------|
GTR II part 2
e|--121212-141414--121212-141414-121212-141414--121212-141414-----|
B|--121212-121212--121212-121212-121212-121212--121212-112121-----|
G|----------------------------------------------------------------|
D|----------------------------------------------------------------|
A|----------------------------------------------------------------|
E|----------------------------------------------------------------|
repeat GTR II part 1 & part 2 tapos 2ng nasa baba play nyo
GTR II
e|-14-14-14-14-14-14-14-14-14-14-14-14-14-14----------------------|
B|----------------------------------------------------------------|

CHORUS
GTR I
    A	     G#m	     B
e|-000000-|-444444-|-----22222222----|
B|-222222-|-444444-|-----44444444----|
G|-222222-|-444444-|-----44444444----|
D|-222222-|-666666-|-----44444444----|
A|-000000-|-666666-|-----22222222----|
E|--------|-444444-|-----xxxxxxxx----|
GTR II
e|------7-|----9--7|------12-12-12-12|
B|--5-7---|5-7-----|---10------------|
G|--------|--------|-9---------------|
A-G#m        B
I    just want to say, please just stay with me

GTR I
    A	     G#m	     B
e|-000000-|-444444-|-----22222222----|
B|-222222-|-444444-|-----44444444----|
G|-222222-|-444444-|-----44444444----|
D|-222222-|-666666-|-----44444444----|
A|-000000-|-666666-|-----22222222----|
E|--------|-444444-|-----xxxxxxxx----|
GTR II
e|------7-|-----9-7|------12-12-12-12|
B|--5-7---|5-7-----|---10-10-10-10-10|
G|--------|--------|--9--------------|
 A-G#m     B
I    am not ashamed to be the same with you

GTR I
     A	    G#m      C#m      F#m     A      B
e|-00000-|-44444-|-44444-|-22222-|-00000-|-2222-|
B|-22222-|-44444-|-55555-|-22222-|-22222-|-4444-|
G|-22222-|-44444-|-66666-|-22222-|-22222-|-4444-|
D|-22222-|-66666-|-66666-|-44444-|-22222-|-4444-|
A|-00000-|-66666-|-44444-|-44444-|-00000-|-2222-|
E|-------|-44444-|-------|-22222-|-------|-xxxx-|
GTR II

e|5-5-5-5|7-7-7-7|9-9-9-9|12-12-12-12|5-5-5-5|7-7-7-7|-12(4x)-|
B|5-5-5-5|7-7-7-7|9-9-9-9|10-10-10-10|5-5-5-5|7-7-7-7|--------|
G|-------|-------|-------|-----------|-------|-------|--------|
A-G#m  C#m-F#m A-B
I      I    I find myself in you

OUTRO
GTR I-
e|----------------------------------------------------------------|
B|----------------------------------------------------------------|
G|--4--5---7----9---4--4--5---7---9---4--4--5---7---9-------------|
D|--4--4---8----9---4--4--4---8---9---4--4--4---8---9-------------|
A|----------------------------------------------------------------|
E|----------------------------------------------------------------|
GTR II
e|--------------4-----------------4-----------------4--44444444---|
B|--4h5-4h5-4h5-5-----4h5-4h5-4h5-5-----4h5-4h5-4h5-5--55555555---|
G|44----------------44----------------44--------------------------|
D|----------------------------------------------------------------|
A|----------------------------------------------------------------|
E|----------------------------------------------------------------|

---E----

|==========================================================================|
|==========================================================================|
|==========================================================================|


|==================================================|
|==================================================|
|						   |
|                   ALL WE NEED-E                  |
|						   |
|==================================================|
|==================================================|
INTRO

e|----------------------------------------------------|
B|----------------------------------------------------|
G|-6-x-6----------------------------------------------|
D|-6-x-6---3-x-3---8-x-8---6-x-6---4-x-4--------------|
A|-4-x-4---3-x-3---8-x-8---6-x-6---4-x-4--------------|
E|---------1-x-1---6-x-6---4-x-4---2-x-2--------------|
GTR I
    C#              Fm             F#          G#
e|------------------------------------------------------|
B|------------------------------------------------------|
G|-666666666--------------------------------------------|2x
D|-666666666-----333333333-----444444444-----666666666--|
A|-444444444-----333333333-----444444444-----666666666--|
E|---------------111111111-----222222222-----444444444--|
GTR II
e|----9---|
B|-11-----|
G|--------|
D|--------|
A|--------|
E|--------|

ROGEM - gawin nyo 2 sa bawat chords ha
GTR II
 RIFF 1 C# repeat 2x||RIFFF 2 Fm  rep.2x ||RIFF 3 F# rep.2x||RIFF 4--G#
||
e|------------------||-------------------||----------------||---999---9-7s9-||
B|---------9-9-9----||---------9-9-9-----||-------9-9-9----||777---777------||
G|------------------||-------------------||----------------||---------------||
D|-11-11-11---------||-10-10-10----------||-8-8-8----------||---------------||
A|------------------||-------------------||----------------||---------------||
E|------------------||-------------------||----------------||---------------||

VERSE
GTR I
    C#              Fm             F#          G#
e|------------------------------------------------------|
B|------------------------------------------------------|
G|-666666666--------------------------------------------|2x
D|-666666666-----333333333-----444444444-----666666666--|
A|-444444444-----333333333-----444444444-----666666666--|
E|---------------111111111-----222222222-----444444444--|

Been turning a blind eye for the longest time
Still I see where this is headed
And my mind is going should I risk it?

Its all been said and done before
Honestly Im out of patience
For anymore of your excuses

REFRAIN
GTR I
   F#          G#         Bbm        G#    F#      G#
e|-----------------------------------------------------|
B|-----------------------------------------------------|
G|-----------------------------------------------------|
D|-444444444--666666666--888888888--6666-444444-66666\-|
A|-444444444--666666666--888888888--6666-444444-66666\-|
E|-222222222--444444444--666666666--4444-222222-44444\-|
F#
Kicking and screaming inside lies a feeling
G#
One lowly voice against a backdrop of noise
Bbm
Am I on my own
G#                  F#  G#
Tonight ill let you know

CHORUS

GTR I
   C#              G#             Bbm           F#
e|------------------------------------------------------|
B|------------------------------------------------------|
G|-666666666--------------------------------------------|
D|-666666666-----666666666-----888888888-----555555555--|
A|-444444444-----666666666-----888888888-----555555555--|
E|---------------444444444-----666666666-----333333333--|
GTR II
   C#              G#             Bbm           F#
e|------------------------------------------------------|
B|------------------------------------------------------|
G|-666666666-----888888888-----10-10-10-10---11-11-11-11|
D|-xxxxxxxxx-----xxxxxxxxx------x--x--x--x----x--x--x--x|
A|-444444444-----666666666------8--8--8--8----9--9--9--9|
E|------------------------------------------------------|
C#
I light the fire for those of us who wept
G#                              Bbm
for all the heartache that we felt and this is all we need
F#
This is all I need

GTR I
   C#            F            Bbm        G#m       F#m     G#m
e|--------------------------------------------------------------|
B|--------------------------------------------------------------|
G|-666666666----------------------------------------------------|
D|-666666666--333333333-----888888888--666666666-444444-666666--|
A|-444444444--333333333-----888888888--666666666-444444-666666--|
E|------------111111111-----666666666--444444444-222222-444444--|
ROGEM - > ung GTR II STRUMMING UN HA
GTR II
   C#            F          Bbm        G#m       F#m     G#m
e|--------------------------------------------------------------|
B|--------------------------------------------------------------|
G|-6----------10-----------15----------13--------11-----13------|
D|-x-----------x------------x-----------x--------x-------x------|
A|-4-----------8------------8----------11--------9------11------|
E|--------------------------------------------------------------|
C#                             F
I sing along with each and everyone beneath the sorrow lies
Bbm              G#m                 F#m             G#m
Someone whos reaching out for a hand whos reaching too

VERSE II
GTR I
    C#              Fm             F#          G#
e|------------------------------------------------------|
B|------------------------------------------------------|
G|-666666666--------------------------------------------|2x
D|-666666666-----333333333-----444444444-----666666666--|
A|-444444444-----333333333-----444444444-----666666666--|
E|---------------111111111-----222222222-----444444444--|
A common tale if truth be told
Familiar as it seems
My story lies between

REFRAIN

GTR I
   F#          G#         Bbm        G#    F#      G#
e|-----------------------------------------------------|
B|-----------------------------------------------------|
G|-----------------------------------------------------|
D|-444444444--666666666--888888888--6666-444444-66666\-|
A|-444444444--666666666--888888888--6666-444444-66666\-|
E|-222222222--444444444--666666666--4444-222222-44444\-|
F#
Silent and seamless the sound of my weakness
G#
Is drowned on the noise of a world with no voice
Bbm
And I take it all
G#                      F#   G#
TOnight the night will know


CHORUS

GTR I
   C#              G#             Bbm           F#
e|------------------------------------------------------|
B|------------------------------------------------------|
G|-666666666--------------------------------------------|
D|-666666666-----666666666-----888888888-----555555555--|
A|-444444444-----666666666-----888888888-----555555555--|
E|---------------444444444-----666666666-----333333333--|
GTR II
   C#              G#             Bbm           F#
e|------------------------------------------------------|
B|------------------------------------------------------|
G|-666666666-----888888888-----10-10-10-10---11-11-11-11|
D|-xxxxxxxxx-----xxxxxxxxx------x--x--x--x----x--x--x--x|
A|-444444444-----666666666------8--8--8--8----9--9--9--9|
E|------------------------------------------------------|
C#
I light the fire for those of us who wept
G#                              Bbm
for all the heartache that we felt and this is all we need
F#
This is all I need

GTR I
   C#         F          Bbm       G#m   F#m    G#m   F#m   G#m
e|--------------------------------------------------------------|
B|--------------------------------------------------------------|
G|-666666666----------------------------------------------------|
D|-666666666-333333333-888888888-666666-444444-666666-4444-6666-|
A|-444444444-333333333-888888888-666666-444444-666666-4444-6666-|
E|-----------111111111-666666666-444444-222222-444444-2222-4444-|
ROGEM - > ung GTR II STRUMMING UN HA
GTR II
   C#          F        Bbm        G#m    F#m  G#m     F#m   G#m
e|--------------------------------------------------------------|
B|--------------------------------------------------------------|
G|-7---------11--------16---------14-----12---14-----12---14----|
D|-x----------x---------x----------x------x----x------x----x----|
A|-5----------9---------9---------12-----10---10-----10---10----|
E|--------------------------------------------------------------|
C#                            F
I sing along with each and everyone beneath the sorrow lies
Bbm              G#m                 F#m                    G#m
Someone whos reaching out for a hand whos reaching too
F#m   G#m
Too

BRIDGE
GTR I
e|----------|----------|----------|----------|
B|----------|----------|----------|----------|
G|--6~~~~~x-|---5~~~~~x|---3~~~~~x|----------|
D|--6~~~~~x-|---6~~~~~x|---3~~~~~x|-4444444--|
A|--4~~~~~x-|---3~~~~~x|---1~~~~~x|-4444444--|
E|----------|----------|----------|-2222222--|
C# (pause)
Take flight when the nightlight's out of sight
D/C (pause)
Take flight just go and take the night
Bbm (pause)
Take flight as we share this drink tonight
F#m
Take flight its our fight I fight tonight

GTR I
e|-------------|-------------|------------|------------|
B|-------------|-------------|------------|------------|
G|--666666666--|--5555555555-|---33333333-|------------|
D|--666666666--|--6666666666-|---33333333-|-4444444444-|
A|--444444444--|--3333333333-|---11111111-|-4444444444-|
E|-------------|-------------|------------|-3222222222-|
GTR II
e|-------------|-------------|------------|------------|
B|-------------|-------------|------------|------------|
G|---111---111-|---111---111-|---111---111|---666---666|
D|-------------|-------------|------------|444---444---|
A|444---444----|333---333----|111---111---|------------|
E|-------------|-------------|------------|------------|
C#
Take flight when the nightlight's out of sight
D/C
Take flight just go and take the night
Bbm,
Take flight as we share this drink tonight
F#m
Take flight its our fight I fight tonight

GTR I
e|-------------|-------------|------------|------------|
B|-------------|-------------|------------|------------|
G|--777777777--|--6666666666-|---44444444-|------------|
D|--777777777--|--7777777777-|---44444444-|-5555555555-|
A|--555555555--|--4444444444-|---22222222-|-5555555555-|
E|-------------|-------------|------------|-3333333333-|
GTR II
e|-------------|-------------|------------|------------|
B|-------------|-------------|------------|------------|
G|---222---222-|---222---222-|---222---222|---777---777|
D|-------------|-------------|------------|555---555---|
A|555---555----|444---444----|222---222---|------------|
E|-------------|-------------|------------|------------|
D
Take flight when the nightlight's out of sight
D/Db
Take flight just go and take the night
Bm
Take flight as we share this drink tonight
G
Take flight its our fight I fight tonight

REFRAIN
GTR I
   F#          G#         Bbm        G#    F#      G#
e|-----------------------------------------------------|
B|-----------------------------------------------------|
G|-----------------------------------------------------|
D|-444444444--666666666--888888888--6666-444444-66666\-|
A|-444444444--666666666--888888888--6666-444444-66666\-|
E|-222222222--444444444--666666666--4444-222222-44444\-|
F#
Kicking and screaming inside lies a feeling
G#
One lowly voice against a backdrop of noise
Bbm
Am I on my own
G#                  F#  G#
Tonight ill let you know

CHORUS

GTR I
   C#              G#             Bbm           F#
e|------------------------------------------------------|
B|------------------------------------------------------|
G|-666666666--------------------------------------------|
D|-666666666-----666666666-----888888888-----555555555--|
A|-444444444-----666666666-----888888888-----555555555--|
E|---------------444444444-----666666666-----333333333--|
GTR II
   C#              G#             Bbm           F#
e|------------------------------------------------------|
B|------------------------------------------------------|
G|-666666666-----888888888-----10-10-10-10---11-11-11-11|
D|-xxxxxxxxx-----xxxxxxxxx------x--x--x--x----x--x--x--x|
A|-444444444-----666666666------8--8--8--8----9--9--9--9|
E|------------------------------------------------------|
C#
I light the fire for those of us who wept
G#                              Bbm
for all the heartache that we felt and this is all we need
F#
This is all I need

GTR I
   C#            F            Bbm        G#m       F#m     G#m
e|--------------------------------------------------------------|
B|--------------------------------------------------------------|
G|-666666666----------------------------------------------------|
D|-666666666--333333333-----888888888--666666666-444444-666666--|
A|-444444444--333333333-----888888888--666666666-444444-666666--|
E|------------111111111-----666666666--444444444-222222-444444--|
ROGEM - > ung GTR II STRUMMING UN HA
GTR II
   C#            F          Bbm        G#m       F#m     G#m
e|--------------------------------------------------------------|
B|--------------------------------------------------------------|
G|-6----------10-----------15----------13--------11-----13------|
D|-x-----------x------------x-----------x--------x-------x------|
A|-4-----------8------------8----------11--------9------11------|
E|--------------------------------------------------------------|
C#                             F
I sing along with each and everyone beneath the sorrow lies
Bbm              G#m                 F#m             G#m
Someone whos reaching out for a hand whos reaching too

C#  D/C Bbm F#m (2x)
   You.

End with F#

|==========================================================================|
|==========================================================================|
|==========================================================================|

|==================================================|
|==================================================|
|						   |
|                    NOCTURNE-E                    |
|						   |
|==================================================|
|==================================================|

ROGEM - > d2 sa song na 2 parang gumamit cla ng D chord na ginagamit
	  ung string na Ab ung D chord na un madalas gamitin sa
	  jazz nilagay ko ung formation ng chord na un qng di
	  kyo comfortable s formation ng mga chords na ginamit
          ko pwd naman kyo ng Basic chords..

ROGEM - > sa pagka2rinig ko parang medyo may trick din ung pag
          Strum nila d2 may narinig ako na first strum sa isang
	  chord na di nya pinatamaan ung eb na string tapos 2nd
          strike sa chord na un sinama nya na ung eb. pero di ko
          na pi-nost un kc baka malito kyo hehehe..

ROGEM - >(*Tip*)lang ha baka makatulong strum nyo ung mga chord using
         ur fingers only wag kyo mag pick try noy lang baka maka2long

C#	: X46644
C#M9	: X46544
C#M9	: X46444
C#7	: X46464
F#	: 244322 or XX4322
F#m	: 244222 or XX4222
Fm	: 133111
G#m	: 466444


VERSE
    C#            C#M7          C#7	      F#
e|-x-x-x-x-x-x---x-x-x-x-x-x---x-x-x-x-x-x---2-2-2-2-2-2-|
B|-6-6-6-6-6-6---6-6-6-6-6-6---6-6-6-6-6-6---2-2-2-2-2-2-|
G|-6-6-6-6-6-6---5-5-5-5-5-5---4-4-4-4-4-4---3-3-3-3-3-3-|
D|-6-6-6-6-6-6---6-6-6-6-6-6---6-6-6-6-6-6---4-4-4-4-4-4-|
A|-4-4-4-4-4-4---4-4-4-4-4-4---4-4-4-4-4-4---4-4-4-4-4-4-|
E|-x-x-x-x-x-x-------------------------------2-2-2-2-2-2-|
C#                C#M7
Laid my head on the pillow
                       C#7
Watched the night go by
                        F#
Watched the checkered pillowcases come alive


    C#            C#M7          C#7	      F#
e|-x-x-x-x-x-x---x-x-x-x-x-x---x-x-x-x-x-x---2-2-2-2-2-2-|
B|-6-6-6-6-6-6---6-6-6-6-6-6---6-6-6-6-6-6---2-2-2-2-2-2-|
G|-6-6-6-6-6-6---5-5-5-5-5-5---4-4-4-4-4-4---3-3-3-3-3-3-|
D|-6-6-6-6-6-6---6-6-6-6-6-6---6-6-6-6-6-6---4-4-4-4-4-4-|
A|-4-4-4-4-4-4---4-4-4-4-4-4---4-4-4-4-4-4---4-4-4-4-4-4-|
E|-x-x-x-x-x-x-------------------------------2-2-2-2-2-2-|
C#                  C#M7
Silence croons me slowly
                     C#7
And I wonder how you are
                    F#
Are you sleeping soundly


    		F#m
e|-----------2-2-2-2-2-2---------------------------------|
B|-----------2-2-2-2-2-2---------------------------------|
G|-----------2-2-2-2-2-2---------------------------------|
D|-----------4-4-4-4-4-4---------------------------------|
A|-----------4-4-4-4-4-4---------------------------------|
E|-----------2-2-2-2-2-2---------------------------------|
                        F#m
You don't quite feel as far

CHORUS
    C#           C#M7  C#7	F#            F#m
e|-x-x-x-x-x-x---x-x-x-x-x-x---2-2-2-2-2-2---2-2-2-2-2-2|
B|-6-6-6-6-6-6---6-6-6-6-6-6---2-2-2-2-2-2---2-2-2-2-2-2|
G|-6-6-6-6-6-6---5-5-4-4-4-4---3-3-3-3-3-3---2-2-2-2-2-2|
D|-6-6-6-6-6-6---6-6-6-6-6-6---4-4-4-4-4-4---4-4-4-4-4-4|
A|-4-4-4-4-4-4---4-4-4-4-4-4---4-4-4-4-4-4---4-4-4-4-4-4|
E|-----------------------------2-2-2-2-2-2---2-2-2-2-2-2|
C#
Saw your name written on the ceiling
C#M7         C#7           F#		    F#m
Not sure if I'm still dreaming of you I've seen you
   	C#
e|-----x----------------------------------|
B|-----6----------------------------------|
G|-----6----------------------------------|
D|-----6----------------------------------|
A|-----4----------------------------------|
E|-----x----------------------------------|
        D
in my sleep


VERSE II

    C#            C#M7          C#7	      F#
e|-x-x-x-x-x-x---x-x-x-x-x-x---x-x-x-x-x-x---2-2-2-2-2-2-|
B|-6-6-6-6-6-6---6-6-6-6-6-6---6-6-6-6-6-6---2-2-2-2-2-2-|
G|-6-6-6-6-6-6---5-5-5-5-5-5---4-4-4-4-4-4---3-3-3-3-3-3-|
D|-6-6-6-6-6-6---6-6-6-6-6-6---6-6-6-6-6-6---4-4-4-4-4-4-|
A|-4-4-4-4-4-4---4-4-4-4-4-4---4-4-4-4-4-4---4-4-4-4-4-4-|
E|-x-x-x-x-x-x-------------------------------2-2-2-2-2-2-|
From across the room the clock leers
As I try to sleep again
I would rather shorten the night
Than lengthen the day

    C#            C#M7          C#7	      F#
e|-x-x-x-x-x-x---x-x-x-x-x-x---x-x-x-x-x-x---2-2-2-2-2-2-|
B|-6-6-6-6-6-6---6-6-6-6-6-6---6-6-6-6-6-6---2-2-2-2-2-2-|
G|-6-6-6-6-6-6---5-5-5-5-5-5---4-4-4-4-4-4---3-3-3-3-3-3-|
D|-6-6-6-6-6-6---6-6-6-6-6-6---6-6-6-6-6-6---4-4-4-4-4-4-|
A|-4-4-4-4-4-4---4-4-4-4-4-4---4-4-4-4-4-4---4-4-4-4-4-4-|
E|-x-x-x-x-x-x-------------------------------2-2-2-2-2-2-|
    C#   C#M7            C#7      F#
In sleep we lose half our self

GTR I
    		F#m
e|-----------2-2-2-2-2-2---------------------------------|
B|-----------2-2-2-2-2-2---------------------------------|
G|-----------2-2-2-2-2-2---------------------------------|
D|-----------4-4-4-4-4-4---------------------------------|
A|-----------4-4-4-4-4-4---------------------------------|
E|-----------2-2-2-2-2-2---------------------------------|
GTR II
		F#m
e|-----------16--14--13--14--16--------------------------|
B|-------------------------------------------------------|
G|-------------------------------------------------------|
F#m
I would rather spend it dreaming of you

CHORUS
    C#           C#M7  C#7	F#            F#m
e|-x-x-x-x-x-x---x-x-x-x-x-x---2-2-2-2-2-2---2-2-2-2-2-2|
B|-6-6-6-6-6-6---6-6-6-6-6-6---2-2-2-2-2-2---2-2-2-2-2-2|
G|-6-6-6-6-6-6---5-5-4-4-4-4---3-3-3-3-3-3---2-2-2-2-2-2|
D|-6-6-6-6-6-6---6-6-6-6-6-6---4-4-4-4-4-4---4-4-4-4-4-4|
A|-4-4-4-4-4-4---4-4-4-4-4-4---4-4-4-4-4-4---4-4-4-4-4-4|
E|-----------------------------2-2-2-2-2-2---2-2-2-2-2-2|
C#
Saw your name written on the ceiling
C#M7       C#7              F#
Not sure if I'm still dreaming of you
      F#m
I've seen you in my sleep

REPEAT 2x di kasali last line

     F#m              Fm
Ive seen you in my sleep


INTERLUDE

ROGEM - > para d2 naman sa outro pakingan nyo lang sa audio para
	  sa ryt timing ng lead solo nya pati ung timing ng GTR I
GTR I
    Fm G#m Fm C#m-F#

GTR II SOlo

e|------4---6---4---7p4-----------4---6---4---7p4-----------|
B|--4-----4---4---4-----4-----4-----4---4---4-----4---------|
G|4---4---------------------4---4---------------------------|
D|----------------------------------------------------------|
A|----------------------------------------------------------|
E|----------------------------------------------------------|

e|------4---5---3---6p3-----------3----5---3----6p3---------|
B|--3-----3---3---3-----3-----3------3---3---3------3-------|
G|4---4---------------------4---4---------------------------|
D|----------------------------------------------------------|
A|----------------------------------------------------------|
E|----------------------------------------------------------|

e|------4---6--7-----9-----------4---6---7----9---7---6-4---|
B|--4-----4------4-----------4-4---4---4---4----4---4-------|
G|4---4------4-------------4--------------------------------|
D|----------------------------------------------------------|
A|----------------------------------------------------------|
E|----------------------------------------------------------|


CHORUS
    C#           C#M7  C#7	F#            F#m
e|-x-x-x-x-x-x---x-x-x-x-x-x---2-2-2-2-2-2---2-2-2-2-2-2|
B|-6-6-6-6-6-6---6-6-6-6-6-6---2-2-2-2-2-2---2-2-2-2-2-2|
G|-6-6-6-6-6-6---5-5-4-4-4-4---3-3-3-3-3-3---2-2-2-2-2-2|
D|-6-6-6-6-6-6---6-6-6-6-6-6---4-4-4-4-4-4---4-4-4-4-4-4|
A|-4-4-4-4-4-4---4-4-4-4-4-4---4-4-4-4-4-4---4-4-4-4-4-4|
E|-----------------------------2-2-2-2-2-2---2-2-2-2-2-2|
C#
Saw your name written on the ceiling
C#M7       C#7              F#
Not sure if I'm still dreaming of you
      F#m
I've seen you in my sleep

CHORUS
    C#           C#M7  C#7	F#            F#m
e|-x-x-x-x-x-x---x-x-x-x-x-x---2-2-2-2-2-2---2-2-2-2-2-2|
B|-6-6-6-6-6-6---6-6-6-6-6-6---2-2-2-2-2-2---2-2-2-2-2-2|
G|-6-6-6-6-6-6---5-5-4-4-4-4---3-3-3-3-3-3---2-2-2-2-2-2|
D|-6-6-6-6-6-6---6-6-6-6-6-6---4-4-4-4-4-4---4-4-4-4-4-4|
A|-4-4-4-4-4-4---4-4-4-4-4-4---4-4-4-4-4-4---4-4-4-4-4-4|
E|-----------------------------2-2-2-2-2-2---2-2-2-2-2-2|
C#
Saw your name written on the ceiling
C#M7       C#7              F#
Not sure if I'm still dreaming of you


      F#m
I've seen you in my sleep ( repeat 4x ) then last chord "C#"


|==========================================================================|
|==========================================================================|
|==========================================================================|

|==================================================|
|==================================================|
|						   |
|                    PASUBALI-E                    |
|						   |
|==================================================|
|==================================================|

ROGEM - > d2 ginawa ko 2ng tab na to qng papano q 2 tugtugin
	  pero qng di kyo satisfy o di nyo nagustuhan kung
	  pano ko iplay ung song pwd nyo gamitin ung basic chords
	  nalang nakalagay naman ung mga chords

INTRO

e|---------------------------------------------------|
B|---------------------------------------------------|
G|----------/77777777-----------3---3-5-2---2-3------|
D|-88888888-/77777777-55555555\---5-------3----------|
A|-88888888-/55555555-55555555\----------------------|
E|-66666666-----------33333333\----------------------|

GTR I
e|-------------|------------|------------|--------------|
B|-------------|------------|------------|--------------|
G|-------------|--77777777--|------------|--------------|
D|---88888888--|--77777777--|--55555555--|--44444444----|
A|---88888888--|--55555555--|--55555555--|--44444444----|
E|---66666666--|------------|--33333333--|--22222222----|
GTR II
e|-------------|------------|------------|--------------|
B|-------------|------------|------------|--------------|
G|-------------|------------|------------|--------------|
D|-------------|------------|------------|--------------|
A|-/55-33-11-33|-55-33-11-33|-55-33-11-33|-55-33-11-33--|
E|-------------|------------|------------|--------------|

GTR I
e|-------------|------------|------------|--------------|
B|-------------|------------|------------|--------------|
G|-------------|--77777777--|------------|--------------|
D|---88888888--|--77777777--|--55555555--|--888-7777----|
A|---88888888--|--55555555--|--55555555--|--888-8888----|
E|---66666666--|------------|--33333333--|--666-5555----|
GTR II
e|-----------------------------------------------------------------------|
B|-----------------------------------------------------------------------|
G|-10-10-88-77-88--10-10-88-77-88--10-10-88-77-88-10-10-88-77-88-10-10---|
D|-----------------------------------------------------------------------|
A|-/8--8-66-55-66---8--8-66-55-66--8--8--88-55-66--8--8-66-55-66--8-8----|
E|-----------------------------------------------------------------------|


VERSE I
    Bb	         Dm           Eb           Bb9  Bb
e|-6-6-6-6-6-6--5-5-5-5-5-5--x-x-x-x-x-x--1-1--1-1--------------|
B|-6-6-6-6-6-6--6-6-6-6-6-6--8-8-8-8-8-8--1-1--3-3--------------|
G|-7-7-7-7-7-7--7-7-7-7-7-7--8-8-8-8-8-8--3-3--3-3--------------|
D|-8-8-8-8-8-8--7-7-7-7-7-7--8-8-8-8-8-8--3-3--3-3--------------|
A|-8-8-8-8-8-8--5-5-5-5-5-5--6-6-6-6-6-6--1-1--1-1--------------|
E|-6-6-6-6-6-6--------------------------------------------------|

Bb                                  Dm
Kung pwede lang  wag mo na 'tong iwasan
     Eb                      Bb9-Bb
At -wag mo ring ituring na biro
Bb                        Dm
marahil 'to'y 'di mo inaasahan
     Eb                      Bb9-Bb
pero sana'y 'wag ipinid ang pinto

REFRAIN
    Gm      F      Eb
e|----------------------------------------|
B|----------------------------------------|
G|-----------------8-8-8-8-8-8-8----------|
D|--5~5----3-3-3---8-8-8-8-8-8-8----------|
A|--5-5----3-3-3---6-6-6-6-6-6-6----------|
E|--3-3----1-1-1--------------------------|
Gm         F
Itikom ang bibig
Eb
Mata'y ibaling sa 'kin
    Gm      F      Eb

Gm               F        Eb
Pakinggan mo ang sasabihin ko

CHORUS
    Bb            Dm          Gm           F#
e|--------------------------------------------------------|
B|----------------------------------------2-2-2-2-2-2-----|
G|--------------7-7-7-7-7-7---------------3-3-3-3-3-3-----|
D|-8-8-8-8-8-8--7-7-7-7-7-7--5-5-5-5-5-5--4-4-4-4-4-4-----|
A|-8-8-8-8-8-8--5-5-5-5-5-5--5-5-5-5-5-5--4-4-4-4-4-4-----|
E|-6-6-6-6-6-6---------------3-3-3-3-3-3------------------|
Bb
Kailan mo ba matututunan?
Dm
kailan mo ba 'pagsisigawang
Gm                     F#
Di mo na 'pagkakailang tayo


    Bb            Dm          Gm          Bb    Cm    A
e|--------------------------------------------------------|
B|--------------------------------------------------------|
G|--------------7-7-7-7-7-7-------------------------------|
D|-8-8-8-8-8-8--7-7-7-7-7-7--5-5-5-5-5-5-8-8-/-10--\-7----|
A|-8-8-8-8-8-8--5-5-5-5-5-5--5-5-5-5-5-5-8-8-/-10--\-7----|
E|-6-6-6-6-6-6---------------3-3-3-3-3-3-6-6-/-8---\-5----|

Bb
Kay rami nang pinagdaanan
Dm
Ano pa bang 'yong kailangan?
Gm                      Bb Cm-A
Nagsusumamo na sabihin mo

INTERLUDE
GTR I
    Bb	         Dm           Eb           Bb9  Bb
e|-6-6-6-6-6-6--5-5-5-5-5-5--x-x-x-x-x-x--1-1--1-1--------------|
B|-6-6-6-6-6-6--6-6-6-6-6-6--8-8-8-8-8-8--1-1--3-3--------------|
G|-7-7-7-7-7-7--7-7-7-7-7-7--8-8-8-8-8-8--3-3--3-3--------------|
D|-8-8-8-8-8-8--7-7-7-7-7-7--8-8-8-8-8-8--3-3--3-3--------------|
A|-8-8-8-8-8-8--5-5-5-5-5-5--6-6-6-6-6-6--1-1--1-1--------------|
E|-6-6-6-6-6-6--------------------------------------------------|

GTR II
e|-1------------1------------1----------3-----------------|
B|----3------------3-------------3------------4---3--3----|
G|--------------------------------------------------------|
D|--------------------------------------------------------|
A|--------------------------------------------------------|
E|--------------------------------------------------------|

VERSE
GTR I
    Bb		    Dm              Eb            Bbm   Bb
e|-6-6-6-6-6-6-----5-5-5-5-5-5-----x-x-x-x-x-x----1-1--1-1|
B|-6-6-6-6-6-6-----6-6-6-6-6-6-----8-8-8-8-8-8----1-1--3-3|
G|-7-7-7-7-7-7-----7-7-7-7-7-7-----8-8-8-8-8-8----3-3--3-3|2x
D|-8-8-8-8-8-8-----7-7-7-7-7-7-----8-8-8-8-8-8----3-3--3-3|
A|-8-8-8-8-8-8-----5-5-5-5-5-5-----6-6-6-6-6-6----1-1--1-1|
E|-6-6-6-6-6-6--------------------------------------------|
GTR II
e|6-6-6-6-6-6-6-6-5-5-5-5-5-5-5-5-x-x-x-x-x-x-x-x---------|
B|6-6-6-6-6-6-6-6-6-6-6-6-6-6-6-6-4-4-4-4-4-4-4-4---4-3-3-|
G|7-7-7-7-7-7-7-7-7-7-7-7-7-7-7-7-3-3-3-3-3-3-3-3---------|
D|--------------------------------1-1-1-1-1-1-1-1---------|2x
A|--------------------------------------------------------|
E|--------------------------------------------------------|
Bb                     Dm
Ang diwa ko'y tigib sa kakaisip
  Ebb                       Bbm-Bb
Sa sarili'y laging may kinikimkim
Bb                     Dm
Patuloy lamang bang mananaginip
  Eb                       Bbm-Bb
At mananatili lang na nakapikit

REFRAIN
    Gm      F      Eb
e|----------------------------------------|
B|----------------------------------------|
G|-----------------8-8-8-8-8-8-8----------|
D|--5~5----3-3-3---8-8-8-8-8-8-8----------|
A|--5-5----3-3-3---6-6-6-6-6-6-6----------|
E|--3-3----1-1-1--------------------------|
Gm         F
Akoy mayrong batid
Eb
Itoy iyong pag amin

     Gm     F      Eb		    Eb
e|-----------------------------------------------------|
B|-----------------------------------------------------|
G|-----------------8-8-8-8-8-8-8---x-x-x-x-x-x-x-------|
D|--5~5----3-3-3---8-8-8-8-8-8-8---8-8-8-8-8-8-8-------|
A|--5-5----3-3-3---6-6-6-6-6-6-6---6-6-6-6-6-6-6-------|
E|--3-3----1-1-1---------------------------------------|
Gm              F        Eb
Hindi na natin maiiwasan to


CHORUS
    Bb            Dm          Gm           F#
e|--------------------------------------------------------|
B|----------------------------------------2-2-2-2-2-2-----|
G|--------------7-7-7-7-7-7---------------3-3-3-3-3-3-----|
D|-8-8-8-8-8-8--7-7-7-7-7-7--5-5-5-5-5-5--4-4-4-4-4-4-----|
A|-8-8-8-8-8-8--5-5-5-5-5-5--5-5-5-5-5-5--4-4-4-4-4-4-----|
E|-6-6-6-6-6-6---------------3-3-3-3-3-3------------------|
Bb
Kailan mo ba matututunan?
Dm
kailan mo ba 'pagsisigawang
Gm                     F#
Di mo na 'pagkakailang tayo


    Bb            Dm          Gm          Bb    Cm    A
e|--------------------------------------------------------|
B|--------------------------------------------------------|
G|--------------7-7-7-7-7-7-------------------------------|
D|-8-8-8-8-8-8--7-7-7-7-7-7--5-5-5-5-5-5-8-8-/-10--\-7----|
A|-8-8-8-8-8-8--5-5-5-5-5-5--5-5-5-5-5-5-8-8-/-10--\-7----|
E|-6-6-6-6-6-6---------------3-3-3-3-3-3-6-6-/-8---\-5----|

Bb
Kay rami nang pinagdaanan
Dm
Ano pa bang 'yong kailangan?
Gm                      Bb Cm-A
Nagsusumamo na sabihin mo

REFRAIN
    Gm      F      Eb
e|----------------------------------------|
B|----------------------------------------|
G|-----------------8-8-8-8-8-8-8----------|
D|--5~5----3-3-3---8-8-8-8-8-8-8----------|
A|--5-5----3-3-3---6-6-6-6-6-6-6----------|
E|--3-3----1-1-1--------------------------|
Gm         F
Akoy mayrong batid
Eb
Itoy iyong pag amin

     Gm     F      Eb
e|-----------------------------------------------------|
B|-----------------------------------------------------|
G|-----------------8-----------------------------------|
D|--5~5----3-3-3---8-----------------------------------|
A|--5-5----3-3-3---6-----------------------------------|
E|--3-3----1-1-1---------------------------------------|
Gm              F        Eb
Hindi na natin maiiwasan to

INTERLUDE


GTR II
   F       F#        Gm      F#
e|------------------------------------------------|
B|------------------------------------------------|
G|-------3--------4--------5--------4-4-----------| 3x
D|-----3--------4--------5--------4------4--------|
A|---3--------4--------5--------4-----------------|
E|-1--------2--------3--------2-------------------|


GTR I papasok 2 sa 3rd Round ng INterlude
e|------------------------------------------------------|
B|------------------------------------------------------|
G|------------------------------------------------------|
D|33333333--44444444-55555555-44444444-4-4-4-4-4-4-4-4--|
A|33333333--44444444-55555555-44444444-4-4-4-4-4-4-4-4--|
E|11111111--22222222-33333333-22222222-2-2-2-2-2-2-2-2--|

e|-------------------------------------------------------|
B|-------------------------------------------------------|
G|-------------------------------------------------------|
D|-------------------------------------------------------|
A|--1-/6\------------------------------------------------|
E|-------------------------------------------------------|
   naiintindihan mo Ba?....


CHORUS
    Bb            Dm          Gm           F#
e|--------------------------------------------------------|
B|----------------------------------------2-2-2-2-2-2-----|
G|--------------7-7-7-7-7-7---------------3-3-3-3-3-3-----|
D|-8-8-8-8-8-8--7-7-7-7-7-7--5-5-5-5-5-5--4-4-4-4-4-4-----|
A|-8-8-8-8-8-8--5-5-5-5-5-5--5-5-5-5-5-5--4-4-4-4-4-4-----|
E|-6-6-6-6-6-6---------------3-3-3-3-3-3------------------|
Bb
Kailan mo ba matututunan?
Dm
kailan mo ba 'pagsisigawang
Gm                     F#
Di mo na 'pagkakailang tayo


    Bb            Dm          Gm          Bb    Cm    A
e|--------------------------------------------------------|
B|--------------------------------------------------------|
G|--------------7-7-7-7-7-7-------------------------------|
D|-8-8-8-8-8-8--7-7-7-7-7-7--5-5-5-5-5-5-8-8-/-10--\-7----|
A|-8-8-8-8-8-8--5-5-5-5-5-5--5-5-5-5-5-5-8-8-/-10--\-7----|
E|-6-6-6-6-6-6---------------3-3-3-3-3-3-6-6-/-8---\-5----|

Bb
Kay rami nang pinagdaanan
Dm
Ano pa bang 'yong kailangan?
Gm                      Bb Cm-A
Nagsusumamo na sabihin mo

OUTRO
GTR I
e|-------------|------------|------------|--------------|
B|-------------|------------|------------|--------------|
G|-------------|--77777777--|------------|--------------|
D|---88888888--|--77777777--|--55555555--|--888-7777----|
A|---88888888--|--55555555--|--55555555--|--888-8888----|
E|---66666666--|------------|--33333333--|--666-5555----|
GTR II
e|-----------------------------------------------------------------------|
B|-----------------------------------------------------------------------|
G|-10-10-88-77-88--10-10-88-77-88--10-10-88-77-88-10-10-88-77-88-10-10---|
D|-----------------------------------------------------------------------|
A|-/8--8-66-55-66---8--8-66-55-66--8--8--88-55-66--8--8-66-55-66--8-8----|
E|-----------------------------------------------------------------------|

e|---------------------------------------------------|
B|---------------------------------------------------|
G|----------/77777777-----------3---3-5-2---2-3------|
D|-88888888-/77777777-55555555\---5-------3----------|
A|-88888888-/55555555-55555555\----------------------|
E|-66666666-----------33333333\----------------------|


|==========================================================================|
|==========================================================================|
|==========================================================================|

|==================================================|
|==================================================|
|						   |
|                     HARAPIN-E                    |
|						   |
|==================================================|
|==================================================|


INTRO

e|-2-2-2-2-2-2-2-2-2-2-2-2-2-2------------|
B|-4-4-4-4-4-4-4-4-4-4-4-4-4-4------------|
G|-4-4-4-4-4-4-4-4-4-4-4-4-4-4------------|
D|-4-4-4-4-4-4-4-4-4-4-4-4-4-4------------|
A|-2-2-2-2-2-2-2-2-2-2-2-2-2-2------------|
E|----------------------------------------|

VERSE I

    B      F#	   C#    C#9 C#   C       F#	  C#    C#9 C#
e|-2-2-2---2-2-2---4-4-4--4--4----2-2-2---2-2-2---4-4-4--4--4---|
B|-4-4-4---2-2-2---6-6-6--4--6----4-4-4---2-2-2---6-6-6--4--6---|
G|-4-4-4---3-3-3---6-6-6--6--6----4-4-4---3-3-3---6-6-6--6--6---|
D|-4-4-4---4-4-4---6-6-6--6--6----4-4-4---4-4-4---6-6-6--6--6---|
A|-2-2-2---4-4-4---4-4-4--4--4----2-2-2---4-4-4---4-4-4--4--4---|
E|---------2-2-2--------------------------2-2-2-----------------|
   B          F#     C#-C#9-c#   B  F#  C#-C#9------------------|c#
   Sa'n ka nakalingon, aking kaibigan

ROGEM - > d2 gumamit ako ng pang jazz chord na Em bahala kyo
          qng e2 gamitin nyo o gawin nyo nalang basic chord


   B       F#      C#     Ebm    B       F#      C#    C#9-C#
e|-2-2-2---2-2-2---4-4-4--3-3-3--2-2-2---2-2-2---4-4-4--4--4--|
B|-4-4-4---2-2-2---6-6-6--4-4-4--4-4-4---2-2-2---6-6-6--4--6--|
G|-4-4-4---3-3-3---6-6-6--3-3-3--4-4-4---3-3-3---6-6-6--6--6--|
D|-4-4-4---4-4-4---6-6-6--5-5-5--4-4-4---4-4-4---6-6-6--6--6--|
A|-2-2-2---4-4-4---4-4-4--6-6-6--2-2-2---4-4-4---4-4-4--4--4--|
E|---------2-2-2-------------------------2-2-2----------------|
 B          F#      C#    Ebm      B  F#  C#-C#9-C#
 Hanggang kailan mo ito balak na iwasan


    B      F#	   C#    C#9 C#   C       F#	  C#    C#9 C#
e|-2-2-2---2-2-2---4-4-4--4--4----2-2-2---2-2-2---4-4-4--4--4--------|
B|-4-4-4---2-2-2---6-6-6--4--6----4-4-4---2-2-2---6-6-6--4--6--------|
G|-4-4-4---3-3-3---6-6-6--6--6----4-4-4---3-3-3---6-6-6--6--6--------|
D|-4-4-4---4-4-4---6-6-6--6--6----4-4-4---4-4-4---6-6-6--6--6--------|
A|-2-2-2---4-4-4---4-4-4--4--4----2-2-2---4-4-4---4-4-4--4--4--------|
E|---------2-2-2--------------------------2-2-2----------------------|
B               F#        C#-C#9-C#   B             F#       C#-C#9--|C#
Ang panaho'y tumatakbong palayo Tagilid, pag-asa ng 'yong pagkakataong

   B       F#      C#     Ebm    B       F#      C#    C#9-C#
e|-2-2-2---2-2-2---4-4-4--3-3-3--2-2-2---2-2-2---4-4-4--4--4--|
B|-4-4-4---2-2-2---6-6-6--4-4-4--4-4-4---2-2-2---6-6-6--4--6--|
G|-4-4-4---3-3-3---6-6-6--3-3-3--4-4-4---3-3-3---6-6-6--6--6--|
D|-4-4-4---4-4-4---6-6-6--5-5-5--4-4-4---4-4-4---6-6-6--6--6--|
A|-2-2-2---4-4-4---4-4-4--6-6-6--2-2-2---4-4-4---4-4-4--4--4--|
E|---------2-2-2-------------------------2-2-2----------------|
      Lumaban sa agos at tumawid


CHORUS
    B      F#
e|-2-2-2--2-2-2--|
B|-4-4-4--2-2-2--|
G|-4-4-4--3-3-3--|3x
D|-4-4-4--4-4-4--|
A|-2-2-2--4-4-4--|
E|--------2-2-2--|
    B           F#        B      F#
O anong magagawa ng maling nag-aakala
     B             F#
Pagmasdan mo ang mukha

     Ebm      C#      B       F#
e|--3-3-3-3---4-4-4---2-2-2---2-2-2----|
B|--4-4-4-4---6-6-6---4-4-4---2-2-2----|
G|--3-3-3-3---6-6-6---4-4-4---3-3-3----|
D|--5-5-5-5---6-6-6---4-4-4---4-4-4----|
A|--6-6-6-6---4-4-4---2-2-2---4-4-4----|
E|----------------------------2-2-2----|
         Ebm         C#          B          F#
Ng kung sinong pinagpala't lagi nang nagtatanong

     B      F#
e|-2-2-2--2-2-2--|
B|-4-4-4--2-2-2--|
G|-4-4-4--3-3-3--|
D|-4-4-4--4-4-4--|
A|-2-2-2--4-4-4--|
E|--------2-2-2--|
     B             F#
Sa kasama, laging may binubulong

   B      F#      Ebm        C#     B
e|2-2-2---2-2-2---3-3-3-3---4-4-4---2-2-2------|
B|4-4-4---2-2-2---4-4-4-4---6-6-6---4-4-4------|
G|4-4-4---3-3-3---3-3-3-3---6-6-6---4-4-4------|
D|4-4-4---4-4-4---5-5-5-5---6-6-6---4-4-4------|
A|2-2-2---4-4-4---6-6-6-6---4-4-4---2-2-2------|
E|--------2-2-2--------------------------------|
B          F#      Ebm            C#     B
Handa ka bang harapin ang bukas na magaganap


VERSE II

    B      F#	   C#    C#9 C#   C       F#	  C#    C#9 C#
e|-2-2-2---2-2-2---4-4-4--4--4----2-2-2---2-2-2---4-4-4--4--4-|
B|-4-4-4---2-2-2---6-6-6--4--6----4-4-4---2-2-2---6-6-6--4--6-|
G|-4-4-4---3-3-3---6-6-6--6--6----4-4-4---3-3-3---6-6-6--6--6-|
D|-4-4-4---4-4-4---6-6-6--6--6----4-4-4---4-4-4---6-6-6--6--6-|
A|-2-2-2---4-4-4---4-4-4--4--4----2-2-2---4-4-4---4-4-4--4--4-|
E|---------2-2-2--------------------------2-2-2---------------|
Bakit lagi kang nag-aalinlangan


   B       F#      C#     Ebm    B       F#      C#    C#9-C#
e|-2-2-2---2-2-2---4-4-4--3-3-3--2-2-2---2-2-2---4-4-4--4--4--|
B|-4-4-4---2-2-2---6-6-6--4-4-4--4-4-4---2-2-2---6-6-6--4--6--|
G|-4-4-4---3-3-3---6-6-6--3-3-3--4-4-4---3-3-3---6-6-6--6--6--|
D|-4-4-4---4-4-4---6-6-6--5-5-5--4-4-4---4-4-4---6-6-6--6--6--|
A|-2-2-2---4-4-4---4-4-4--6-6-6--2-2-2---4-4-4---4-4-4--4--4--|
E|---------2-2-2-------------------------2-2-2----------------|
Wala ka naman laging dapat patunayan

     Ebm          C#
e|--3-3-3-3-3---4-4-4-4-4---|
B|--4-4-4-4-4---6-6-6-6-6---|
G|--3-3-3-3-3---6-6-6-6-6---|
D|--5-5-5-5-5---6-6-6-6-6---|
A|--6-6-6-6-6---4-4-4-4-4---|
E|--------------------------|
Lilinaw din ang himpapawid
     Ebm          C#
e|--3-3-3-3-3---4-4-4-4-4---|
B|--4-4-4-4-4---6-6-6-6-6---|
G|--3-3-3-3-3---6-6-6-6-6---|
D|--5-5-5-5-5---6-6-6-6-6---|
A|--6-6-6-6-6---4-4-4-4-4---|
E|--------------------------|
May nakalaang daang matuwid

     Ebm          C#        B
e|--3-3-3-3-3---4-4-4-4-4---2-2-2-2-2-|
B|--4-4-4-4-4---6-6-6-6-6---4-4-4-4-4-|
G|--3-3-3-3-3---6-6-6-6-6---4-4-4-4-4-|
D|--5-5-5-5-5---6-6-6-6-6---4-4-4-4-4-|
A|--6-6-6-6-6---4-4-4-4-4---2-2-2-2-2-|
E|------------------------------------|
Makikita mo sa wakas kung anong dahilan


SOLO

      Ebm     C#       B       F#       Ebm      C#       B

e|------------------------------------------------------9--11-----|
B|--6h7------6----------------------------------------------------|
G|-------------6-----4/8----6------3/6-6----/8--11--11------------|
D|----------------------------8-----------------------------------|
A|----------------------------------------------------------------|
E|----------------------------------------------------------------|

          Ebm     C#       B       F#       Ebm      C#       B

e|----------------------------------------------------9----7--6--4--2--|
B|--6-7------6-------------------------6-------------------------------|
G|-------------6-----4/8---6--------3/6-6----6--6----------------------|
D|--------------------------8-6-4-6------------------------------------|
A|---------------------------------------------------------------------|
E|---------------------------------------------------------------------|


CHORUS
    B      F#
e|-2-2-2--2-2-2--|
B|-4-4-4--2-2-2--|
G|-4-4-4--3-3-3--|3x
D|-4-4-4--4-4-4--|
A|-2-2-2--4-4-4--|
E|--------2-2-2--|
    B           F#        B      F#
O anong magagawa ng maling nag-aakala
     B            F#
Pagmasdan mo ang mukha


     Ebm      C#      B       F#
e|--3-3-3-3---4-4-4---2-2-2---2-2-2----|
B|--4-4-4-4---6-6-6---4-4-4---2-2-2----|
G|--3-3-3-3---6-6-6---4-4-4---3-3-3----|
D|--5-5-5-5---6-6-6---4-4-4---4-4-4----|
A|--6-6-6-6---4-4-4---2-2-2---4-4-4----|
E|----------------------------2-2-2----|
Ng kung sinong pinagpala't lagi nang nagtatanong

    B      F#
e|-2-2-2--2-2-2--|
B|-4-4-4--2-2-2--|
G|-4-4-4--3-3-3--|
D|-4-4-4--4-4-4--|
A|-2-2-2--4-4-4--|
E|--------2-2-2--|
Sa kasama, laging may binubulong

  B       F#      Ebm       C#
e|2-2-2---2-2-2---3-3-3-3---4-4-4----|
B|4-4-4---2-2-2---4-4-4-4---6-6-6----|
G|4-4-4---3-3-3---3-3-3-3---6-6-6----|
D|4-4-4---4-4-4---5-5-5-5---6-6-6----|
A|2-2-2---4-4-4---6-6-6-6---4-4-4----|
E|--------2-2-2----------------------|
Handa ka bang tumayo at maninindigan


    B      F#
e|-2-2-2--2-2-2--|
B|-4-4-4--2-2-2--|
G|-4-4-4--3-3-3--|3x
D|-4-4-4--4-4-4--|
A|-2-2-2--4-4-4--|
E|--------2-2-2--|
    B           F#        B      F#
O anong magagawa ng maling nag-aakala
     B             F#
Pagmasdan mo ang mukha

     Ebm      C#      B       F#
e|--3-3-3-3---4-4-4---2-2-2---2-2-2----|
B|--4-4-4-4---6-6-6---4-4-4---2-2-2----|
G|--3-3-3-3---6-6-6---4-4-4---3-3-3----|
D|--5-5-5-5---6-6-6---4-4-4---4-4-4----|
A|--6-6-6-6---4-4-4---2-2-2---4-4-4----|
E|----------------------------2-2-2----|
Ng kung sinong pinagpala't lagi nang nagtatanong


    B      F#
e|-2-2-2--2-2-2--|
B|-4-4-4--2-2-2--|
G|-4-4-4--3-3-3--|
D|-4-4-4--4-4-4--|
A|-2-2-2--4-4-4--|
E|--------2-2-2--|
Sa kasama, laging may binubulong

   B      F#      Ebm        C#     B
e|2-2-2---2-2-2---3-3-3-3---4-4-4---2-2-2------|
B|4-4-4---2-2-2---4-4-4-4---6-6-6---4-4-4------|
G|4-4-4---3-3-3---3-3-3-3---6-6-6---4-4-4------|
D|4-4-4---4-4-4---5-5-5-5---6-6-6---4-4-4------|
A|2-2-2---4-4-4---6-6-6-6---4-4-4---2-2-2------|
E|--------2-2-2--------------------------------|
Handa ka bang harapin ang bukas na magaganap
B
Harapin ang bukas na magaganap

|==========================================================================|
|==========================================================================|
|==========================================================================|

            
            
Suggest correction
Creating personal tab
Creating personal tab
You can edit any tab online and save it as your Personal.

You can edit, replace or remove any tab part or add personal notes – all changes will be seen only by you.

Personal tabs can be accessed anytime from any device, even offline.
Learn more »
comments
print report bad tab
11 comments total. Showing first comments.
0 reply
f1f2 774 Dec 18, 2006 10:48 PM

ung mga chords po ayusin niu

0 reply
alfonz___ 197 Dec 21, 2006 04:32 AM

haaay nko... gaya gaya puto maya

0 reply
random2280 10 Dec 25, 2006 07:09 PM

KUYA ASTIG 2NG TAB NYO INGIT LANG SI ALFONZ KC UNG KANYA KULANG HEHEHEHEHEHEH KUYA ANG GALING NYO TALAGA 2RUAN NYO NAMAN AKO

guest
You may want to rate the tab now too:
select rating
Wanna post a correction for this tab? Suggest correction