Oops, an error
Loading. Please wait.

Tuliro tab

version 1
version 1

Whole song

Interactive

10,191 views 33 this week
3 commentsread comments
1 2 3 4 5
x 5
add to favorites
×
Save as Personal and add changes to this tab that will be seen only by you. Learn more ›
×
You can save this tab as Personal to edit and correct it or add notes. All changes will be seen only by you. Learn more »
launch autoscroll
font size
0
reset
how to read this tab
guitar tuner
edit
Autoscroll
slow
fast
+/-
esc
set tempo
stop
Tabber: KING ARAGONES d’ great

Message: medyo magulo pero oks lng un. Hindi pa nga lumalabas mtv nito eh. Abangan nio
lng po. Pls rate. Parang awa nio na po. Binabati ko pi si parilla jovi, jadie ,ram, at
tongson at si chuman. Si jb na ang galing  mag gitara.
Kay sabado, sa lahat ng st. timothy. Mawala na sana ang mga kapuso.
Intro:

     D   DM7   D  DM7   D  DM7  D DM7     DM7  D  DM7    D  DM7  D  DM7
e|---2----2----2---2----2---2---2--2-------2---2---2---2---2---2---2---|
B|---3----2----3---2----3---2---3--2-------2---3---2---3---2---3---2---|
G|---2----2----3---2----2---2---2--2-------2---2---2---2---2---2---2---|
D|---------------------------------------------------------------------|
A|---------------------------------------------------------------------|
E|---------------------------------------------------------------------|

     Dm  DM7 D    Dm  DM7 D   Dm       DM7 D   Dm  DM7 D   Dm
e|---1----2-(2)---1---2-(2)---1--------2-(2)---1---2-(2)---1-----------|
B|---3----2-(3)---3---2—(3)---3--------2-(3)---3---2—(3)---3-----------|
G|---2----2-(2)---2---2-(2)---2--------2-(2)---2---2-(2)---2-----------|
D|---------------------------------------------------------------------|
A|---------------------------------------------------------------------|
E|---------------------------------------------------------------------|

Verse:


     D   DM7   D  DM7   D  DM7  D DM7     DM7  D  DM7    D  DM7  D  DM7
e|---2----2----2---2----2---2---2--2-------2---2---2---2---2---2---2---|
B|---3----2----3---2----3---2---3--2-------2---3---2---3---2---3---2---|
G|---2----2----3---2----2---2---2--2-------2---2---2---2---2---2---2---|
D|---------------------------------------------------------------------|
A|---------------------------------------------------------------------|
E|---------------------------------------------------------------------|

Gtr-1
     D   DM7   D  DM7   D  DM7  D DM7     DM7  D  DM7    D  DM7  D  DM7
e|---2----2----2---2----2---2---2--2-------2---2---2---2---2---2---2---|
B|---3----2----3---2----3---2---3--2-------2---3---2---3---2---3---2---|
G|---2----2----3---2----2---2---2--2-------2---2---2---2---2---2---2---|
D|---------------------------------------------------------------------|
A|---------------------------------------------------------------------|
E|---------------------------------------------------------------------|

gtr-2
e|---1--1----1---1--1----1---1---1-----1-1-----------------------------|
B|---3----3------3----3------3------3----3-----------------------------|
G|---2-----------2-----------2-----------2-----------------------------|
D|---------------------------------------------------------------------|
A|---------------------------------------------------------------------|
E|---------------------------------------------------------------------|

Paulit ulit lng po… kau na po bahala kung panu ung timing.

Gtr-1
e|---10-10-10-10-10-10-10-10-10-10-14-14-14-14-14-14-14-14-14-14—12-12-12-12-12-12--|
B|----------------------------------------------------------------------------------|
G|----------------------------------------------------------------------------------|
D|----------------------------------------------------------------------------------|
A|----------------------------------------------------------------------------------|
E|----------------------------------------------------------------------------------|


e|---10---10-10-10-10-10--10---10-10-10—-10----10-10-10-10—-10----10-10-10-10-10-10--|
B|-----------------------------------------------------------------------------------|
G|-----------------------------------------------------------------------------------|
D|-----------------------------------------------------------------------------------|
A|-----------------------------------------------------------------------------------|
E|-----------------------------------------------------------------------------------|

Pakingan nio po mabuti para maintindihan nio. Astheig……..

Chorus:

e|------------------------------------------------------------------------------------|
B|------------------------------------------------------------------------------------|
G|---5--5--5--5--6--6--6--6--6--6--6--5--5--5--5--5--5--5--6--6--6--6--6--------------|
D|---5--5--5--5--6--6--6--6--6--6--6--5--5--5--5--5--5--5--6--6--6--6--6--------------|
A|---7--7--7--7--8--8--8--8--8--8--8--7--7--7--7--7--7--7--8--8--8--8--8--------------|
E|------------------------------------------------------------------------------------|

 x- ewan po to. Kau na rin po bahala. Ala na po aq oras pala bilangin. Astheig……..

bago mag ending  ung chorus  Papasok po e2.           astheig..

e|-------------------------------------------------------------------------------------|
B|-12—12-12-11-11-11-10-10-10-9-9-9-8-8-8-7-7-7-6-6-6-5-5-5-4-4-4-3-3-3-2-2-2-1-1-1-0-0|
G|-------------------------------------------------------------------------------------|
D|-------------------------------------------------------------------------------------|
A|-------------------------------------------------------------------------------------|
E|-------------------------------------------------------------------------------------|

Ganun po din sa verse 2.

Adlib:

e|-----8---12--11-11-11---11h(s)13---11-9-8-------b17-16---15-14---15-16-17-b18~-b19~--|
B|------------------------------------------9~~----------------------------------------|
G|-------------------------------------------------------------------------------------|
D|-------------------------------------------------------------------------------------|
A|-------------------------------------------------------------------------------------|
E|-------------------------------------------------------------------------------------|

e|-18~--16-16~-------------12-13-11~---17-15-14----------15--17-19--b19-b17--b15--b18--|
B|--------------12s(h)14-------------------------16-17---------------------------------|
G|-------------------------------------------------------------------------------------|
D|-------------------------------------------------------------------------------------|
A|-------------------------------------------------------------------------------------|
E|-------------------------------------------------------------------------------------|

     D   DM7   D  DM7   D  DM7  D DM7     DM7  D  DM7    D  DM7  D  DM7
e|---2----2----2---2----2---2---2--2-------2---2---2---2---2---2---2-------------------|
B|---3----2----3---2----3---2---3--2-------2---3---2---3---2---3---2-------------------|
G|---2----2----3---2----2---2---2--2-------2---2---2---2---2---2---2-------------------|
D|---x----x----x---x----x---x---x--x-------x---x---x---x---x---x---x-------------------|
A|---x----x----x---x----x---x---x--x-------x---x---x---x---x---x---x-------------------|
E|---x----x----x---x----x---x---x--x-------x---x---x---x---x---x---x-------------------|

     Dm  DM7 D    Dm  DM7 D   Dm       DM7 D   Dm  DM7 D   Dm
e|---1----2-(2)---1---2-(2)---1--------2-(2)---1---2-(2)---1--------------------------|
B|---3----2-(3)---3---2—(3)---3--------2-(3)---3---2—(3)---3--------------------------|
G|---2----2-(2)---2---2-(2)---2--------2-(2)---2---2-(2)---2--------------------------|
D|---x----x--x----x---x--x----x--------x--x----x---x--x----x--------------------------|
A|---x----x--x----x---x--x----x--------x--x----x---x--x----x--------------------------|
E|---x----x--x----x---x--x----x--------x--x----x---x--x----x--------------------------|


end.

Pls. Rate. 5 na kung pede.
Kung meron po kaung comments, suggestions, wild reactions,  send nio po sa sn_how_king@yahoo.com
Add nio po ako sa YM sn_how_king

Binabati ko po ung mga kaibigan ko sina si jovi, parilla, at ako.
Tsaka sina  jadie at ram at si buri. Tsaka lahat ng taga timothy.
Binabati ko rin ang lahat ng marista    lm/_      rok on

Tingnan nio rin po ng iba kong mga tabs.

            
            
Suggest correction
Creating personal tab
Creating personal tab
You can edit any tab online and save it as your Personal.

You can edit, replace or remove any tab part or add personal notes – all changes will be seen only by you.

Personal tabs can be accessed anytime from any device, even offline.
Learn more »
comments
print report bad tab
3 comments total.
0 reply
allynhime 10 Dec 05, 2006 02:15 AM

bunso..yahoo.my rate na toh huh?sna nasurprise ka..hihihi..la lng..i miss you lil bro..mwaaaAh..

0 reply
brent_nadurata 150 Dec 10, 2006 01:59 AM

magulo po ung tab mo.. 1 star lng...

0 reply
xperiment_666 121 Apr 24, 2007 10:39 PM

dude... ayucn m... pwde p..

guest
You may want to rate the tab now too:
select rating
Wanna post a correction for this tab? Suggest correction