Oops, an error
Loading. Please wait.

Tuliro Tab

version 1
version 1

Whole song

Interactive

24,585 views 42 this week
no commentswrite comment
1 2 3 4 5
please rate
add to favorites
launch autoscroll
font size
0
reset
how to read this tab
guitar tuner
Autoscroll
slow
fast
+/-
esc
set tempo
stop
Help us to improve Ultimate-Guitar.com Take our survey!
×
Author
Difficulty
novice
Title: Tuliro
By: Sponge cola
Tabbed by: craftoon_1352
Email/friendster: craftoon_1352@yahoo.com
cp #:09105214489

|-----------------------MESSAGE-------------------------|
| Hello nga pala sa mga student of university of iloilo |
| to my classmates and sa mga ka batch ko, hi sa inyo   |
| pagpasinsyahan nyo na ang tab na nilagay ko mejo      |
| magulo, hindi, magulo talaga hehehehe                 |
| but i hope you like it pinaghirapan ko talaga to      |
| thanks for viewing my tabbed, if merung mali po txt   |
| nyo ako o di kaya email nyo ako, thanks and enjoy     |
|-------------------------------------------------------|

Intro: G-Bm-C-Cm (all strums are going down po)

verse 1:
 G                 Bm
 labis akong nahuhumaling
                C                  Cm
 sabik sa bawat sandaling ikay makapiling
 G                Bm
 giliw hayaang lumapit
                 C                  Cm
 wag mo sanang ipagkait mamalas ang langit

 [chorus]
        G    Bm       C         Am
 Anong nadarama twing nakikita kang dumarating
G       Bm  C           Cm
 tuliro, di malaman ang gagawin at

 (nilagyan ko na din yung mini adlib nya sa chorus)
  (pati na din yung timing nya sa lyrics)
  (fast strumming po ha dapat yung parang mapuputol yung daliri nyo hehehe)
       

      (dumarating)  (tuliro) (di malaman ang gagawin at)

     e|------10(8x)--11(8x)---12(16x)---------------------------------|
     B|---------------------------------------------------------------|
gtr2 G|---------------------------------------------------------------|
     D|---------------------------------------------------------------| 
     A|---------------------------------------------------------------|
     E|---------------------------------------------------------------|



 G           Gaug         F#aug   Gaug
 walang sino mang makapipigil sa akin

      (walang----mang---pipigil-----sa akin)

     e|-10(8x)---11(8x)---12(8x)----11(8x)----------------------------|
     B|---------------------------------------------------------------|
gtr2 G|---------------------------------------------------------------|
     D|---------------------------------------------------------------| 
     A|---------------------------------------------------------------|
     E|---------------------------------------------------------------|


     G        Gaug       F#aug    G7      C       Cm
 at wala nang ibang makapagpabago ng aking isip sayo

     (-wala---------ibang-----makapagpabago-----nang aking isip sayo)

     e|---10(8x)-----11(8x)-----------12(8x)-----11(8x)---------------|
     B|-------------------------------------------------------12(16x)-|
gtr2 G|---------------------------------------------------------------|
     D|---------------------------------------------------------------| 
     A|---------------------------------------------------------------|
     E|---------------------------------------------------------------|

     (smooth lang yung pag strum sa 2nd open string)

 haaay...





 verse 2:
 G                 Bm
 wari hindi ko na malimot
             C                     Cm
 mga galaw at kilos mo sa aking pagtulog

 (do this while playing the 1st 2 stanza of the verse 2)
  ( mula sa wari hanggang pagtulog)

     e|---------------------------------------------------------------|
     B|-12(3x)-11(3x)-10(3x)-9(3x)-8(3x)-7(3x)-6(3x)-5(3x)-4(3x)-3(3x)|
gtr2 G|---------------------------------------------------------------|
     D|---------------------------------------------------------------| 
     A|---------------------------------------------------------------|
     E|---------------------------------------------------------------|

     e|---------------------------------------------------------------|
     B|-2(3x)-1(3x)-0-(break)-----------------------------------------|
gtr2 G|---------------------------------------------------------------|
     D|---------------------------------------------------------------| 
     A|---------------------------------------------------------------|
     E|---------------------------------------------------------------|

           G            Bm
 at sa panaginip ikay mamalagi
              C                      Cm
 di na muling malulumbay sa aking pag gising
 
 [repeat chorus] (except po yung adlib dun na nilagay ko)
 
   G        Bm (break)
 anong nadarama..
 
 (nilagyan ko na rin ng adlib, baka kasi tama eh hehehehe)
 (nlagyan ko na rin ng chords para maka timing kayo)

 [adlib]

                          G          Bm
     e|-------9-9-9s11-9-7-6-2b--------------15b----------------------|
     B|--11-12----------------------------14x-------------------------|
gtr2 G|---------------------------------13x---------------------------|
     D|---------------------------------------------------------------| 
     A|---------------------------------------------------------------|
     E|---------------------------------------------------------------|

       C                     Cm         G
     e|------14-13-11-13-14-16-18b------16-14-14b---------------------|
     B|----16x--------------------------------------------------------|
gtr2 G|-15x-----------------------------------------------------------|
     D|---------------------------------------------------------------| 
     A|---------------------------------------------------------------|
     E|---------------------------------------------------------------|

      Bm             C                                Cm
     e|---------------13s14-13-13-------13s14-14-15-17b-16-14-16-17b--|
     B|-----14-16-14-------------14-16--------------------------------|
gtr2 G|-13s15---------------------------------------------------------|
     D|---------------------------------------------------------------| 
     A|---------------------------------------------------------------|
     E|---------------------------------------------------------------|

 (pag may mali po txt nyo ako o di kaya mag comment kayo sa friendster ko)


 [repeat chorus 2x]
 (kayo na ang bahalang magtiming sa mga chorus hehehe)
 
 outro:
 G-Bm-C-Cm (do until fade)
 tuliro liro liro liro liro liro
 [repeat until fade]


|--------------------[LAST TESTAMENT]--------------------|
| hehehe dedicate ko ang song na to sa aking crush at sa |
| lahat ng sponge cola fans at sa lahat ng tuliro sa     |
| boung mundo, i hope you like it and thanks for viewing |
| my tabbed, kahit walang rate ok lang po                |
|--------------------------------------------------------|




                   "CRAFTOON LEAVES FOREVER"
Suggest correction
What's this?
You can suggest a correction to this tab. Community and Mods will review your correction and vote to approve or reject it.
comments
We did not receive enough feedback on this tab! Please rate:
print report bad tab
1 2 3 4 5
guest
You may want to rate the tab now too:
select rating
Please do not post tabs as comments. Select "correction" instead!