Oops, an error
Loading. Please wait.

Tuliro bass

version 2
version 2

Whole song

Interactive

3,646 views 1 this week
1 commentread comment
1 2 3 4 5
x 3
add to favorites
×
Save as Personal and add changes to this tab that will be seen only by you. Learn more ›
×
You can save this tab as Personal to edit and correct it or add notes. All changes will be seen only by you. Learn more »
launch autoscroll
font size
0
reset
guitar tuner
edit
Autoscroll
slow
fast
+/-
esc
set tempo
stop
Author
Difficulty
Band/Artist: Sponge Cola
Song Title: Tuliro
Album: Transit
Tuning: Standard EADGBe
Tabbed by: thunderscreem

Makining sa kanta so that alam ninyo kung san me bass at wala…

Verse I
G|------------------------------|
D|------------------------------|
A|----------1-1-1-1-2-2-2-2-2~--| 2x
E|--2-2-2-2---------------------|

Chorus
G|-----------------|    
D|-----------------|    
A|------1-2-2------| 2x 
E|--2-2-------4-4--|    

G|----------------------------------------------------------------------------|
D|----------------------------------------------------------------------------|
A|--4-4-4-4-5-5-5-5-6-6-6-6-5-5-5-5-4-4-4-4-5-5-5-5-6-6-6-6-5-5-5-5-2~-2~-2~--|
E|----------------------------------------------------------------------------|

Verse II
G|------------------------------|
D|------------------------------|
A|----------1-1-1-1-2-2-2-2-2~--| 2x
E|--2-2-2-2---------------------|

Chorus
G|-------------------|    
D|-------------------|    
A|--------1-2-2------| 2x 
E|--2-2-2-------4-4--|    

G|----------------------------------------------------------------------------|
D|----------------------------------------------------------------------------|
A|--4-4-4-4-5-5-5-5-6-6-6-6-5-5-5-5-4-4-4-4-5-5-5-5-6-6-6-6-5-5-5-5-2~-2~-2~--|
E|----------------------------------------------------------------------------|


G|-----------|    
D|-----------|    
A|--------1--| 
E|--2-2-2----| 

Lead
G|------------------------------|
D|------------------------------|
A|----------1-1-1-1-2-2-2-2-2~--| 2x
E|--2-2-2-2---------------------|

Chorus
G|-------------------|    
D|-------------------|    
A|--------1-2-2------| 2x 
E|--2~2-2-------4-4--|    

G|----------------------------------------------------------------------------|
D|----------------------------------------------------------------------------|
A|--4-4-4-4-5-5-5-5-6-6-6-6-5-5-5-5-4-4-4-4-5-5-5-5-6-6-6-6-5-5-5-5-2~-2~-2~--|
E|----------------------------------------------------------------------------|

G|-------------------|    
D|-------------------|    
A|--------1-2-2------| 2x 
E|--2-2-2-------4-4--|    

G|----------------------------------------------------------------------------|
D|----------------------------------------------------------------------------|
A|--4-4-4-4-5-5-5-5-6-6-6-6-5-5-5-5-4-4-4-4-5-5-5-5-6-6-6-6-5-5-5-5-2~-2~-2~--|
E|----------------------------------------------------------------------------|

Outro (tuliro liroliroliro....)
G|-----------------------------------|
D|-----------------------------------|
A|----------1-1-1-1-2-2-2-2-2-2-2-2--| Until Fade
E|--2-2-2-2--------------------------|

Thank you! email me at thunderscreem@gmail.com thanks again!
Suggest correction
Creating personal tab
Creating personal tab
You can edit any tab online and save it as your Personal.

You can edit, replace or remove any tab part or add personal notes – all changes will be seen only by you.

Personal tabs can be accessed anytime from any device, even offline.
Learn more »
Give kudos to tab author, rate the tab!
1 2 3 4 5
comments
print report bad tab
1 comment total.
0 reply
16_jhuris 10 Nov 30, 2007 01:57 PM

Mas tama toh kesa dun sa isa =) salamat naka subscribe nga po pla me sa tabs mo..

guest
You may want to rate the tab now too:
select rating
Wanna post a correction for this tab? Suggest correction