Oops, an error
Loading. Please wait.

Tuliro tab

version 2
version 2

Whole song

Interactive

61,303 views 45 this week
43 commentsread comments
1 2 3 4 5
x 44
add to favorites
×
Save as Personal and add changes to this tab that will be seen only by you. Learn more ›
×
You can save this tab as Personal to edit and correct it or add notes. All changes will be seen only by you. Learn more »
launch autoscroll
font size
0
reset
how to read this tab
guitar tuner
edit
Autoscroll
slow
fast
+/-
esc
set tempo
stop
Author
[Intro]
(Gtr 1)
    F#          Bbm         B        Bm
e|-2-2-2-2--|-1-1-1-1--|-2-2-2-2-|-2--2----|
B|-2-2-2-2--|-2-2-2-2--|-4-4-4-4-|-3---3-3-|
G|-3-3-3-3--|-3-3-3-3--|-4-4-4-4-|-4-4--4--|
D|----------|----------|---------|---------|
A|----------|----------|---------|---------|
E|----------|----------|---------|---------|

(Gtr 2)
e|----------|----------|-----7---|-----7---|
B|----------|----------|-7-7----7|-7--7-7--|
G|----------|----------|-8-------|-7-------|
D|----------|----------|---------|---------|
A|----------|----------|---------|---------|
E|----------|----------|---------|---------|

[Verse]
(Gtr 1)
    F#          Bbm         B        Bm
e|----------|----------|---------|-2--2----|
B|-2-2-2-2--|-2-2-2-2--|-4-4-4-4-|-3---3-3-|
G|-3-3-3-3--|-3-3-3-3--|-4-4-4-4-|-4-4--4--|
D|-4-4-4-4--|-3-3-3-3--|-4-4-4-4-|-4-------|(2x)    
A|-4-4-4-4--|-1-1-1-1--|-2-2-2-2-|---------|
E|----------|----------|---------|---------|

(Gtr 2)
e|-6--6-----|-6---6-6--|-7---7---|-7---7---|
B|-7----7---|-6-----6--|-7----7--|-7-------|
G|-6-6------|-6-6------|-8-8-----|-7-7---7-|(2x)
D|----------|----------|---------|---------|   
A|----------|----------|---------|---------|
E|----------|----------|---------|---------|

Labis  akoy nahuhumaling
sabik sa bawat sandaling ikay makapiling
Giliw hayaang lumapit
Huwag mo sanang ipagkait
Ang malas ng langit

[Chorus]
(Gtr 1)
          F#    Bbm      B          G#m
e|--------------------------------------|
B|------2-2-x---2--------4-4-4------4-4-|
G|------3-3-x---3--------4-4-4------4-4-|
D|------4-4-x---3--------4-4-4------6-6-|
A|------4-4-x---1--------2-2-2------6-6-|
E|----------------------------------4-4-|
Anong na      darama tuwing nakikita kang 

(Gtr 1)
         F#     Bbm       B         G#m
e|--------------------------------------|
B|------2-2-x---2--------4-4-4------4-4-|
G|------3-3-x---3--------4-4-4------4-4-|
D|------4-4-x---3--------4-4-4------6-6-|
A|------4-4-x---1--------2-2-2------6-6-|
E|----------------------------------4-4-|

(Gtr 2)
e|-9(1(2x))-------10(1(2x))-----11(24x)------|
B|-------------------------------------------|
G|-------------------------------------------|
D|-------------------------------------------|
A|-------------------------------------------|
E|-------------------------------------------|
dumarating     tuliro di malaman anong gagawin at
 
(Gtr 1)
e|---------|---------|---------|---------|
B|---------|---------|---------|---------|
G|---------|-6-6-6-6-|-8-8-8-8-|7-7-7-7--|
D|-4-4-4-4-|-6-6-6-6-|-8-8-8-8-|7-7-7-7--|
A|-4-4-4-4-|-4-4-4-4-|-6-6-6-6-|5-5-5-5--|
E|-2-2-2-2-|---------|---------|---------|

(Gtr 2)
e|-9(1(2x))--|-10(1(2x))-|-11(1(2x))-|-10(1(2x))-|
B|-----------|-----------|-----------|-----------|gumamit kyo ng
G|-----------|-----------|-----------|-----------|alternate picking
D|-----------|-----------|-----------|-----------|mabilis dapat
A|-----------|-----------|-----------|-----------|
E|-----------|-----------|-----------|-----------| 
   Walang sinumang makapipigil sa akin
  
(Gtr 1)
e|---------|---------|---------|--------|
B|---------|---------|---------|--------|
G|---------|-6-6-6-6-|-8-8-8-8-|9-9-9-9-|
D|-4-4-4-4-|-6-6-6-6-|-8-8-8-8-|9-9-9-9-|
A|-4-4-4-4-|-4-4-4-4-|-6-6-6-6-|7-7-7-7-|
E|-2-2-2-2-|---------|---------|--------|

(Gtr 2)
e|--9(1(2x))-|-10(1(2x))-|-11(1(2x))-|-10(1(2x))-|
B|-----------|-----------|-----------|-----------|gumamit kyo ng
G|-----------|-----------|-----------|-----------|alternate picking
D|-----------|-----------|-----------|-----------|mabilis dapat
A|-----------|-----------|-----------|-----------|
E|-----------|-----------|-----------|-----------| 
At wala nang ibang makapagbabago ng aking 

(Gtr 1)
e|---------2----2--------------------|
B|-4--4----3------3---3--------------|
G|-4--4----4--4-----4----------------|
D|-4--4----4-------------------------|
A|-2--2------------------------------|
E|-----------------------------------|
   isip, sayo...

(Gtr 2)
e|-----------------------------------|
B|-12(x24)---------------------------|
G|-----------------------------------|
D|-----------------------------------|
A|-----------------------------------|
E|-----------------------------------|

[Verse 2]
(Gtr 1)
   F#         Bbm        B         Bm
e|----------|----------|---------|-x---2---|
B|-2--------|-2--------|-4-------|-3----3-3|
G|-3--let---|-3--let---|-4--let--|-4-4---4-|
D|-4--ring--|-3--ring--|-4--ring-|-4-------|    
A|-4--------|-1--------|-2-------|---------|
E|----------|----------|---------|---------|

(Gtr 2)
e|------------------------------------------------------------------------------|
B|11-11-11-10-10-10-9-99-8-88-7-77-6-66-5-55-4-44-3-33-2-22-1-11----------------|
G|---------------------------------------------------------------4-44-3-3-------|
D|------------------------------------------------------------------------------|
A|------------------------------------------------------------------------------|
E|------------------------------------------------------------------------------|
   Wari di ko na malimot
   Mga galaw at kilos mo
   Sa aking pagtulog

(Gtr 1)
    F#        Bbm        B          Bm
e|----------|----------|----------|-2--2----|
B|-2-2-2-2--|-2-2-2-2--|-4-4-4-4--|-3---3-3-|
G|-3-3-3-3--|-3-3-3-3--|-4-4-4-4--|-4-4--4--|
D|-4-4-4-4--|-3-3-3-3--|-4-4-4-4--|-4-------|    
A|-4-4-4-4--|-1-1-1-1--|-2-2-2-2--|---------|
E|----------|----------|----------|---------|

(Gtr 2)
e|22222-4-22|11111-4-22|22222-4-22|22222-4-22|
B|22222-2-22|22222-2-22|44444-4-44|33333-3-33| 
G|33333-3-33|33333-x-33|44444-x-44|44444---44|
D|----------|----------|----------|----------| 
A|----------|----------|----------|----------| 
E|----------|----------|----------|----------| 
   At sa panaginip
   Ikay mamalagi
   Di na muling malulumbay
   Sa aking paggising

[Chorus]
(Gtr 1)
         F#     Bbm      B          G#m
e|--------------------------------------|
B|------2-2-x---2--------4-4-4------4-4-|
G|------3-3-x---3--------4-4-4------4-4-|
D|------4-4-x---3--------4-4-4------6-6-|
A|------4-4-x---1--------2-2-2------6-6-|
E|----------------------------------4-4-|

(Gtr 2)
e|-----11-9-----------------------------|
B|-----9--7-----------------------------|
G|--------------------------------------|
D|--------------------------------------|
A|--------------------------------------|
E|--------------------------------------|
Anong na      darama tuwing nakikita kang 

(Gtr 1)
         F#     Bbm      B         G#m
e|--------------------------------------|
B|------2-2-x---2--------4-4-4------4-4-|
G|------3-3-x---3--------4-4-4------4-4-|
D|------4-4-x---3--------4-4-4------6-6-|
A|------4-4-x---1--------2-2-2------6-6-|
E|----------------------------------4-4-|
dumarating tuliro di malaman anong gagawin at
    
(Gtr 1)
e|---------|---------|---------|---------|
B|---------|---------|---------|---------|
G|---------|-6-6-6-6-|-8-8-8-8-|7-7-7-7--|
D|-4-4-4-4-|-6-6-6-6-|-8-8-8-8-|7-7-7-7--|
A|-4-4-4-4-|-4-4-4-4-|-6-6-6-6-|5-5-5-5--|
E|-2-2-2-2-|---------|---------|---------|
   Walang sinumang makapipigil sa akin

(Gtr 1)
e|---------|---------|---------|--------|
B|---------|---------|---------|--------|
G|---------|-6-6-6-6-|-8-8-8-8-|9-9-9-9-|
D|-4-4-4-4-|-6-6-6-6-|-8-8-8-8-|9-9-9-9-|
A|-4-4-4-4-|-4-4-4-4-|-6-6-6-6-|7-7-7-7-|
E|-2-2-2-2-|---------|---------|--------|
   At wala nang ibang makapagbabago ng aking 

e|-----------------------------------|
B|-4--4----3-------------------------|
G|-4--4----4-------------------------|
D|-4--4----4-------------------------|
A|-2--2----2-------------------------|
E|-----------------------------------|
   isip  sayo ohhh!!!!! ulol

(Gtr 1)
           F#    Bbm        
e|-------------------------|
B|-------2-2--x--2---------|
G|-------3-3--x--3---------|
D|-------4-4--x--3---------|
A|-------4-4--x--1---------|
E|-------------------------|

(Gtr 2)    
e|---------------9---------|
B|---------------9---------|
G|---------------x---------|
D|---------------8---------|
A|-------------------------|
E|-------------------------|
   Anong na   darama

[Solo]
(Gtr 1)
       F#        Bbm       B          G#m
e|------------------------------------------|
B|-----2-2-2----2-2-2------4-4-4------4-4-4-|
G|-----3-3-3----3-3-3------4-4-4------4-4-4-|
D|-----4-4-4----3-3-3------4-4-4------6-6-6-|
A|-----4-4-4----1-1-1------2-2-2------6-6-6-|
E|------------------------------------4-4-4-|

(Gtr 2)     
e|------9-9-9-9s11-9-------------15b----14-13-11-13-14-16-16-18-16p14-14|
B|11-12---------------12-11------14b---16x------------------------------|
G|---------------------------11~-13b-15x--------------------------------|
D|----------------------------------------------------------------------|
A|----------------------------------------------------------------------|
E|----------------------------------------------------------------------|

(Gtr 1)
         F#        Bbm       B        G#m
e|------------------------------------------|
B|-----2-2-2----2-2-2------4-4-4------4-4-4-|
G|-----3-3-3----3-3-3------4-4-4------4-4-4-|
D|-----4-4-4----3-3-3------4-4-4------6-6-6-|
A|-----4-4-4----1-1-1------2-2-2------6-6-6-|
E|------------------------------------4-4-4-|

(Gtr 2)
e|----------------13s14-14p13------13s14-16-16-17b-16-14-17b-16-15----------|
B|-------14-16-14------------14-16---------------------------14-------------|
G|-13s15--------------------------------------------------------------------|
D|--------------------------------------------------------------------------|
A|--------------------------------------------------------------------------|
E|--------------------------------------------------------------------------|

[Chorus]
          F#    Bbm        B         G#m
e|--------------------------------------------|
B|--------2------2-2-------4-4-4-----4-4-4----|
G|--------3------3-3-------4-4-4-----4-4-4----|
D|--------4------3-3-------4-4-4-----6-6-6----|
A|--------4------1-1-------2-2-2-----6-6-6----|
E|-----------------------------------4-4-4----|
   Anong nadarama tuwing nakikita kang 
   dumarating  tuliro di malaman anong gagawin at

(Gtr 1)
e|---------|---------|---------|---------|
B|---------|---------|---------|---------|
G|---------|-6-6-6-6-|-8-8-8-8-|7-7-7-7--|
D|-4-4-4-4-|-6-6-6-6-|-8-8-8-8-|7-7-7-7--|
A|-4-4-4-4-|-4-4-4-4-|-6-6-6-6-|5-5-5-5--|
E|-2-2-2-2-|---------|---------|---------|
   Walang sinumang makapipigil sa akin
   
(Gtr 1)
e|---------|---------|---------|--------|
B|---------|---------|---------|--------|
G|---------|-6-6-6-6-|-8-8-8-8-|9-9-9-9-|
D|-4-4-4-4-|-6-6-6-6-|-8-8-8-8-|9-9-9-9-|
A|-4-4-4-4-|-4-4-4-4-|-6-6-6-6-|7-7-7-7-|
E|-2-2-2-2-|---------|---------|--------|
At wala nang ibang makapagbabago ng aking 

e|-----------------------------------|
B|-4--4----33333333------------------|
G|-4--4----44444444------------------|
D|-4--4----44444444------------------|
A|-2--2----22222222------------------|
E|-----------------------------------|
   isip  sayo

(Gtr 1)
          F#    Bbm      B          G#m
e|--------------------------------------|
B|------2-2-x---2--------4-4-4------4-4-|
G|------3-3-x---3--------4-4-4------4-4-|
D|------4-4-x---3--------4-4-4------6-6-|
A|------4-4-x---1--------2-2-2------6-6-|
E|----------------------------------4-4-|
   Anong na--darama ngayon at nandirito ka    
   saking tabi  tuliro di malaman anong gagawin at

(Gtr 1)
e|---------|---------|---------|---------|
B|---------|---------|---------|---------|
G|---------|-6-6-6-6-|-8-8-8-8-|7-7-7-7--|
D|-4-4-4-4-|-6-6-6-6-|-8-8-8-8-|7-7-7-7--|
A|-4-4-4-4-|-4-4-4-4-|-6-6-6-6-|5-5-5-5--|
E|-2-2-2-2-|---------|---------|---------|
   Walang sinumang makapipigil sa akin

(Gtr 1)
e|---------|---------|---------|--------|
B|---------|---------|---------|--------|
G|---------|-6-6-6-6-|-8-8-8-8-|9-9-9-9-|
D|-4-4-4-4-|-6-6-6-6-|-8-8-8-8-|9-9-9-9-|
A|-4-4-4-4-|-4-4-4-4-|-6-6-6-6-|7-7-7-7-|
E|-2-2-2-2-|---------|---------|--------|
   At wala nang ibang makapagbabago ng aking 

   B       Bm 
e|--------------x---------------------|
B|-4--4----3----x---------------------|
G|-4--4----4----x---------------------|
D|-4--4----4----x---------------------|
A|-2--2----2----x---------------------|
E|--------------x---------------------|
   isip, sayo.

(Gtr 1)
    F#        Bbm       B        Bm
e|------------------------------------|
B|-2-2-2-2--2-2-2-2--4-4-4-4--3-3-3-3-|
G|-3-3-3-3--3-3-3-3--4-4-4-4--4-4-4-4-| 
D|-4-4-4-4--3-3-3-3--4-4-4-4--4-4-4-4-|   
A|-4-4-4-4--1-1-1-1--2-2-2-2--2-2-2-2-|
E|------------------------------------|

2. Version of the song

[Intro]
(Gtr 1)
    G          Bm         C         Cm
eb|-3-3-3-3--|-2-2-2-2--|-3-3-3-3-|-3--3----|
Bb|-3-3-3-3--|-3-3-3-3--|-5-5-5-5-|-4---4-4-|
Gb|-4-4-4-4--|-4-4-4-4--|-5-5-5-5-|-5-5--5--|
Db|----------|----------|---------|---------|
Ab|----------|----------|---------|---------|
Eb|----------|----------|---------|---------|

(Gtr 2)
eb|----------|----------|-----8---|-----8---|
Bb|----------|----------|-8-8----8|-8--8-8--|
Gb|----------|----------|-9-------|-8-------|
Db|----------|----------|---------|---------|
Ab|----------|----------|---------|---------|
Eb|----------|----------|---------|---------|

[Verse]
(Gtr 1)
   G          Bm          C        Cm
eb|----------|----------|---------|-3--3----|
Bb|-3-3-3-3--|-3-3-3-3--|-5-5-5-5-|-4---4-4-|
Gb|-4-4-4-4--|-4-4-4-4--|-5-5-5-5-|-5-5--5--|
Db|-5-5-5-5--|-4-4-4-4--|-5-5-5-5-|-5-------|(2x)    
Ab|-5-5-5-5--|-2-2-2-2--|-3-3-3-3-|---------|
Eb|----------|----------|---------|---------|

(Gtr 2)
eb|-7--7-----|-7---7-7--|-8---8---|-8---8---|
Bb|-8----8---|-7-----7--|-8----8--|-8-------|
Gb|-7-7------|-7-7------|-9-9-----|-8-8---8-|(2x)
Db|----------|----------|---------|---------|   
Ab|----------|----------|---------|---------|
Eb|----------|----------|---------|---------|

Labis  akoy nahuhumaling
sabik sa bawat sandaling ikay makapiling
Giliw hayaang lumapit
Huwag mo sanang ipagkait
Ang malas ng langit

[Chorus]
(Gtr 1)
         G      Bm        C          Am
eb|--------------------------------------|
Bb|--x---3-3-x---3--------5-5-5------1-1-|
Gb|--x---4-4-x---4--------5-5-5------2-2-|
Db|--x---5-5-x---4--------5-5-5------2-2-|
Ab|--x---5-5-x---2--------3-3-3------0-0-|
Eb|--------------------------------------|
Anong na      darama tuwing nakikita kang 

(Gtr 1)
         G      Bm        C          Am
eb|--------------------------------------|
Bb|--x---3-3-x---3--------5-5-5------1-1-|
Gb|--x---4-4-x---4--------5-5-5------2-2-|
Db|--x---5-5-x---4--------5-5-5------2-2-|
Ab|--x---5-5-x---2--------3-3-3------0-0-|
Eb|--------------------------------------|

(Gtr 2)
eb|-10(1(2x))-------11(1(2x))-----12(24x)-----|
Bb|-------------------------------------------|
Gb|-------------------------------------------|
Db|-------------------------------------------|
Ab|-------------------------------------------|
Eb|-------------------------------------------|
dumarating     tuliro di malaman anong gagawin at
 
(Gtr 1)
eb|---------|---------|---------|---------|
Bb|---------|---------|---------|---------|
Gb|---------|-7-7-7-7-|-9-9-9-9-|8-8-8-8--|
Db|-5-5-5-5-|-7-7-7-7-|-9-9-9-9-|8-8-8-8--|
Ab|-5-5-5-5-|-5-5-5-5-|-7-7-7-7-|6-6-6-6--|
Eb|-3-3-3-3-|---------|---------|---------|

(Gtr 2)
eb|-10(1(2x))-|-11(1(2x))-|-12(1(2x))-|-11(1(2x))-|
Bb|-----------|-----------|-----------|-----------|gumamit kyo ng
Gb|-----------|-----------|-----------|-----------|alternate picking
eb|-----------|-----------|-----------|-----------|mabilis dapat
Bb|-----------|-----------|-----------|-----------|
Gb|-----------|-----------|-----------|-----------| 
   Walang sinumang makapipigil sa akin
  
(Gtr 1)
eb|---------|---------|---------|-----------|
Bb|---------|---------|---------|-----------|
Gb|---------|-7-7-7-7-|-9-9-9-9-|10-10-10-10|
Db|-5-5-5-5-|-7-7-7-7-|-9-9-9-9-|10-10-10-10|
Ab|-5-5-5-5-|-5-5-5-5-|-7-7-7-7-|8--8--8--8-|
Eb|-3-3-3-3-|---------|---------|-----------|

(Gtr 2)
eb|-10(1(2x))-|-11(1(2x))-|-12(1(2x))-|-11(1(2x))-|
Bb|-----------|-----------|-----------|-----------|gumamit kyo ng
Gb|-----------|-----------|-----------|-----------|alternate picking
eb|-----------|-----------|-----------|-----------|mabilis dapat
Bb|-----------|-----------|-----------|-----------|
Gb|-----------|-----------|-----------|-----------| 
At wala nang ibang makapagbabago ng aking 

(Gtr 1)
eb|---------3----3--------------------|
Bb|-5--5----4------4---4--------------|
Gb|-5--5----5--5-----5----------------|
Db|-5--5----5-------------------------|
Ab|-3--3------------------------------|
Eb|-----------------------------------|
   isip, sayo...

(Gtr 2)
eb|-----------------------------------|
Bb|-13(x24)---------------------------|
Gb|-----------------------------------|
eb|-----------------------------------|
Bb|-----------------------------------|
Gb|-----------------------------------|

[Verse 2]
(Gtr 1)
   G          Bm          C        Cm
eb|----------|----------|---------|-x---3---|
Bb|-3--------|-3--------|-5-------|-4----4-4|
Gb|-4--let---|-4--let---|-5--let--|-5-5---5-|
Db|-5--ring--|-4--ring--|-5--ring-|-5-------|    
Ab|-5--------|-2--------|-3-------|---------|
Eb|----------|----------|---------|---------|

(Gtr 2)
eb|------------------------------------------------------------------------------|
Bb|12-12-12-11-11-11--10-10-10-9-99-8-88-7-77-6-66-5-55-4-44-3-33-2-22-1-11-0-0--|
Gb|------------------------------------------------------------------------------|
eb|------------------------------------------------------------------------------|
Bb|------------------------------------------------------------------------------|
Gb|------------------------------------------------------------------------------|
   Wari di ko na malimot
   Mga galaw at kilos mo
   Sa aking pagtulog

(Gtr 1)
   G          Bm          C         Cm
eb|----------|----------|----------|-3--3-----|
Bb|-3-3-3-3--|-3-3-3-3--|-5-5-5-5--|-4---4-4--|
Gb|-4-4-4-4--|-4-4-4-4--|-5-5-5-5--|-5-5--5---|
Db|-5-5-5-5--|-4-4-4-4--|-5-5-5-5--|-5--------|    
Ab|-5-5-5-5--|-2-2-2-2--|-3-3-3-3--|----------|
Eb|----------|----------|----------|----------|

(Gtr 2)
eb|33333-5-33|22222-5-33|33333-5-33|33333-5-33|
Bb|33333-3-33|33333-3-33|55555-5-55|44444-4-44| 
Gb|44444-4-44|44444-x-44|55555-x-55|55555---55|
Db|----------|----------|----------|----------| 
Ab|----------|----------|----------|----------| 
Eb|----------|----------|----------|----------| 

   At sa panaginip
   Ikay mamalagi
   Di na muling malulumbay
   Sa aking paggising

[Chorus]
(Gtr 1)
         G      Bm        C          Am
eb|--------------------------------------|
Bb|--x---3-3-x---3--------5-5-5------1-1-|
Gb|--x---4-4-x---4--------5-5-5------2-2-|
Db|--x---5-5-x---4--------5-5-5------2-2-|
Ab|--x---5-5-x---2--------3-3-3------0-0-|
Eb|--------------------------------------|

(Gtr 2)
eb|-----12-10----------------------------|
Bb|-----10--8----------------------------|
Gb|--------------------------------------|
Db|--------------------------------------|
Ab|--------------------------------------|
Eb|--------------------------------------|
Anong na      darama tuwing nakikita kang 

(Gtr 1)
         G      Bm        C          Am
eb|--------------------------------------|
Bb|--x---3-3-x---3--------5-5-5------1-1-|
Gb|--x---4-4-x---4--------5-5-5------2-2-|
Db|--x---5-5-x---4--------5-5-5------2-2-|
Ab|--x---5-5-x---2--------3-3-3------0-0-|
Eb|--------------------------------------|
dumarating tuliro di malaman anong gagawin at
    
(Gtr 1)
eb|---------|---------|---------|---------|
Bb|---------|---------|---------|---------|
Gb|---------|-7-7-7-7-|-9-9-9-9-|8-8-8-8--|
Db|-5-5-5-5-|-7-7-7-7-|-9-9-9-9-|8-8-8-8--|
Ab|-5-5-5-5-|-5-5-5-5-|-7-7-7-7-|6-6-6-6--|
Eb|-3-3-3-3-|---------|---------|---------|
   Walang sinumang makapipigil sa akin

(Gtr 1)
eb|---------|---------|---------|-----------|
Bb|---------|---------|---------|-----------|
Gb|---------|-7-7-7-7-|-9-9-9-9-|10-10-10-10|
Db|-5-5-5-5-|-7-7-7-7-|-9-9-9-9-|10-10-10-10|
Ab|-5-5-5-5-|-5-5-5-5-|-7-7-7-7-|8--8--8--8-|
Eb|-3-3-3-3-|---------|---------|-----------|
   At wala nang ibang makapagbabago ng aking 

eb|-----------------------------------|
Bb|-5--5----4-------------------------|
Gb|-5--5----5-------------------------|
Db|-5--5----5-------------------------|
Ab|-3--3----3-------------------------|
Eb|-----------------------------------|
   isip  sayo ohhh!!!!! ulol

(Gtr 1)
           G      Bm        
eb|-------------------------|
Bb|--x----3-3--x--2---------|
Gb|--x----4-4--x--4---------|
Db|--x----5-5--x--4---------|
Ab|--x----5-5--x--2---------|
Eb|-------------------------|

(Gtr 2)    
eb|--------------10---------|
Bb|--------------10---------|
Gb|--------------x----------|
Db|--------------9----------|
Ab|-------------------------|
Eb|-------------------------|
   Anong na   darama

[Solo]
(Gtr 1)
         G        Bm       C          Am
eb|------------------------------------------|
Bb|-----3-3-3----3-3-3------5-5-5------1-1-1-|
Gb|-----4-4-4----4-4-4------5-5-5------2-2-2-|
Db|-----5-5-5----4-4-4------5-5-5------2-2-2-|
Ab|-----5-5-5----2-2-2------3-3-3------0-0-0-|
Eb|------------------------------------------|

(Gtr 2)     
eb|------10-10-10-10s12-10------------16b----15-14-12-14-15-17-17-19-17p15-15|
Bb|12-13-------------------13-12------15b---17x------------------------------|
Gb|-------------------------------12~-14b-16x--------------------------------|
Db|--------------------------------------------------------------------------|
Ab|--------------------------------------------------------------------------|
Eb|--------------------------------------------------------------------------|

(Gtr 1)
         G      Bm       C          Am
eb|-------------------------------------|
Bb|------3-3----3--------5-5-5------1-1-|
Gb|------4-4----4--------5-5-5------2-2-|
Db|------5-5----4--------5-5-5------2-2-|
Ab|------5-5----2--------3-3-3------0-0-|
Eb|-------------------------------------|

(Gtr 2)
eb|----------------14s15-15p14------14s15-17-17-18b-17-15-18b-17-15----------|
Bb|-------15-17-15------------15-17---------------------------15-------------|
Gb|-14s16--------------------------------------------------------------------|
Db|--------------------------------------------------------------------------|
Ab|--------------------------------------------------------------------------|
Eb|--------------------------------------------------------------------------|

[Chorus]
           G      Bm        C         Am
eb|--------------------------------------------|
Bb|--------3------3-3-------5-5-5-----1-1-1----|
Gb|--------4------4-4-------5-5-5-----2-2-2----|
Db|--------5------4-4-------5-5-5-----2-2-2----|
Ab|--------5------2-2-------3-3-3-----0-0-0----|
Eb|--------------------------------------------|
   Anong nadarama tuwing nakikita kang 
   dumarating  tuliro di malaman anong gagawin at

(Gtr 1)
eb|---------|---------|---------|---------|
Bb|---------|---------|---------|---------|
Gb|---------|-7-7-7-7-|-9-9-9-9-|8-8-8-8--|
Db|-5-5-5-5-|-7-7-7-7-|-9-9-9-9-|8-8-8-8--|
Ab|-5-5-5-5-|-5-5-5-5-|-7-7-7-7-|6-6-6-6--|
Eb|-3-3-3-3-|---------|---------|---------|
   Walang sinumang makapipigil sa akin
   
(Gtr 1)
eb|---------|---------|---------|-----------|
Bb|---------|---------|---------|-----------|
Gb|---------|-7-7-7-7-|-9-9-9-9-|10-10-10-10|
Db|-5-5-5-5-|-7-7-7-7-|-9-9-9-9-|10-10-10-10|
Ab|-5-5-5-5-|-5-5-5-5-|-7-7-7-7-|8--8--8--8-|
Eb|-3-3-3-3-|---------|---------|-----------|
At wala nang ibang makapagbabago ng aking 

eb|-----------------------------------|
Bb|-5--5----44444444------------------|
Gb|-5--5----55555555------------------|
Db|-5--5----55555555------------------|
Ab|-3--3----33333333------------------|
Eb|-----------------------------------|
   isip  sayo

(Gtr 1)
         G      Bm        C          Am
eb|--------------------------------------|
Bb|--x---3-3-x---3--------5-5-5------1-1-|
Gb|--x---4-4-x---4--------5-5-5------2-2-|
Db|--x---5-5-x---4--------5-5-5------2-2-|
Ab|--x---5-5-x---2--------3-3-3------0-0-|
Eb|--------------------------------------|
   Anong na--darama ngayon at nandirito ka    
   saking tabi  tuliro di malaman anong gagawin at

(Gtr 1)
eb|---------|---------|---------|---------|
Bb|---------|---------|---------|---------|
Gb|---------|-7-7-7-7-|-9-9-9-9-|8-8-8-8--|
Db|-5-5-5-5-|-7-7-7-7-|-9-9-9-9-|8-8-8-8--|
Ab|-5-5-5-5-|-5-5-5-5-|-7-7-7-7-|6-6-6-6--|
Eb|-3-3-3-3-|---------|---------|---------|
   Walang sinumang makapipigil sa akin

(Gtr 1)
eb|---------|---------|---------|-----------|
Bb|---------|---------|---------|-----------|
Gb|---------|-7-7-7-7-|-9-9-9-9-|10-10-10-10|
Db|-5-5-5-5-|-7-7-7-7-|-9-9-9-9-|10-10-10-10|
Ab|-5-5-5-5-|-5-5-5-5-|-7-7-7-7-|8--8--8--8-|
Eb|-3-3-3-3-|---------|---------|-----------|
   At wala nang ibang makapagbabago ng aking 

            Cm 
eb|--------------x---------------------|
Bb|-5--5----4----x---------------------|
Gb|-5--5----5----x---------------------|
Db|-5--5----5----x---------------------|
Ab|-3--3----3----x---------------------|
Eb|--------------x---------------------|
   isip, sayo.

(Gtr 1)
    G        Bm       C        Cm
eb|------------------------------------|
Bb|-3-3-3-3--3-3-3-3--5-5-5-5--4-4-4-4-|
Gb|-4-4-4-4--4-4-4-4--5-5-5-5--5-5-5-5-| 
Db|-5-5-5-5--4-4-4-4--5-5-5-5--5-5-5-5-|   
Ab|-5-5-5-5--2-2-2-2--3-3-3-3--3-3-3-3-|
Eb|------------------------------------|


************************************

| x  Dead note
| p  Pull-off
| b  Bend
| ~  Vibrato

************************************

            
            
Suggest correction
Creating personal tab
Creating personal tab
You can edit any tab online and save it as your Personal.

You can edit, replace or remove any tab part or add personal notes – all changes will be seen only by you.

Personal tabs can be accessed anytime from any device, even offline.
Learn more »
comments
print report bad tab
43 comments total. Showing first comments.
0 reply
boybawang2 10 Dec 21, 2006 10:49 PM

Kuya,nice tab....5 stars....makakatulong 2..hehe..pero maxado magulo..alin ba dito un standard tunning..

0 reply
SayDie123 10 Dec 29, 2006 02:42 AM

ung nasa taas ung standard tuning. ung nasa baba ewan. XD
nice kuya gem! sabi ng kuya ko ang lufet mo daw tlaga mag tab =]
puro spongecola *5

0 reply
elvin_000_guita 30 Jan 01, 2007 07:39 PM

lupet mo kuya gem!!!! hayop!!!! 5 star!!!

guest
You may want to rate the tab now too:
select rating
Wanna post a correction for this tab? Suggest correction