Oops, an error
Loading. Please wait.

Wala Kang Katulad chords

version 3
version 3
3,516 views 1 this week
no commentswrite comment
1 2 3 4 5
3 more votes to show rating
add to favorites
×
Save as Personal and add changes to this tab that will be seen only by you. Learn more ›
×
You can save this tab as Personal to edit and correct it or add notes. All changes will be seen only by you. Learn more »
launch autoscroll
font size
0
reset
transpose
0
reset
simplify chords
display chords
guitar tuner
edit
Autoscroll
slow
fast
+/-
esc
set tempo
stop
Strumming
There is no strumming pattern for this song yet. and get +5 IQ
Sponge Cola
Wala Kang Katulad

Intro: Gm-Eb-E-Eb**

|------------------------------------------------------------------------|
|-----------------------------------8-8-8-8-8-8-8---8-8-8-8-8-8-8-8------|
|---------------3-3-3-3-3-3-3-3-3---8-8-8-8-8-8-8---9-9-9-9-9-9-9-9------|
|---------------5-5-5-5-5-5-5-5-5---8-8-8-8-8-8-8---9-9-9-9-9-9-9-9------|
|-3/5-3-3-2h3p2-5-5-5-5-5-5-5-5-5---6-6-6-6-6-6-6---7-7-7-7-7-7-7-7------|
|---------------3-3-3-3-3-3-3-3-3----------------------------------------|

|-----------------------3-----3------------------------------------------|
|-----------------------3-----0------------------------------------------|
|-----------------------0-----0------------------------------------------|
|------------5----------0-----0------------------------------------------|
|---6-5-3-2----3--2h3---2------------------------------------------------|
|---------------------3-3---3--------------------------------------------|

Verse 1:

Gm       Eb                   Gm
Tanging ikaw lang, minamasdan ko
  Eb                  E
Nakatuon buong pansin ko
            Eb             C#/A
Sa bawat galaw, sa bawat paglipat

  Gm        Eb                   Gm
Marahil minsan ika'y, nasisilaw rin
   Eb                     E
Kibit-balikat bawat ning-ning
              Eb               A/C#
Wala Kang sablay, magbago mang kulay


Chorus:

       Gm           Eb            E         Eb
Nakahigit man ang ilan, ikaw lang aking inaasam
           D              C#
Wala na akong iba pang kailangan
            C
Wala Kang Katulad...


Verse II:

Gm        Eb                  Gm
Bago pa man, tuluyan na magdilim
  Eb                      E
Igawad kahit kaunting pansin
              Eb             A/C#
Punan ang patlang, sa ating pagitan

(Chorus)

E           Eb
Wala Kang Katulad
E           Eb
Wala Kang Katulad

Interlude: Gm-Am-Gm

Bridge:

  Gm          Bbm
Nakabinbin sa'yong pagtitig
   Am            Cm
Pangako ng nakalaang pag-ibig
 Gm            Bb         Am
Asahan mong ako'y maghihintay

Adlib: Gm-Eb-Gm-Eb-E-Eb-E**

Solo:

|------------------------------------------------------------------------|
|---10^--------------10-8-13^-13--10h11-10-----------------10-8-13^-13---|
|---------7~--7-8-10------------------------7h8-8---7-8-10---------------|
|------------------------------------------------------------------------|
|------------------------------------------------------------------------|
|------------------------------------------------------------------------|

|------------------------------------------------------------------------|
|---11-10---6h8-10^-8-6-6--6h8-10^-8-6-10s13--11-11--16-16-14-14---------|
|------------------------------------------------------------------------|
|------------------------------------------------------------------------|
|------------------------------------------------------------------------|
|------------------------------------------------------------------------|



for any comments and suggestions:

dragonfly_25vin@yahoo.com
09097792294/091596667671


**ung una q na sinabmit, nirecommend lng sken ng mga kabarkada q
  try daw kung ^B^ ang chords instead na ^Eb^... hehe hayzhh e1
  hnd aq sure, pero e2 lng ang ginagamit q na chords, bhala na po
  kau... salamat po**

:sa mga kakampi q nung stcaa sa chess, oisSsTtt muztah na kau??
 haha, laro nmn tau jn...pm nio lng aq huh...elow sa mga player
 ng btngas prov. at btngas cT... nakzzz meyAh ganda mo tlga ^_^

            
            
Suggest correction
Creating personal tab
Creating personal tab
You can edit any tab online and save it as your Personal.

You can edit, replace or remove any tab part or add personal notes – all changes will be seen only by you.

Personal tabs can be accessed anytime from any device, even offline.
Learn more »
Give kudos to tab author, rate the tab!
1 2 3 4 5
comments
print report bad tab
guest
Wanna post a correction for this tab? Suggest correction