Oops, an error
Loading. Please wait.

Xgf tab

version 1
version 1

Whole song

4,269 views 1 this week
no commentswrite comment
1 2 3 4 5
3 more votes to show rating
add to favorites
×
Save as Personal and add changes to this tab that will be seen only by you. Learn more ›
×
You can save this tab as Personal to edit and correct it or add notes. All changes will be seen only by you. Learn more »
launch autoscroll
font size
0
reset
how to read this tab
guitar tuner
edit
Autoscroll
slow
fast
+/-
esc
set tempo
stop
Song Title : XGF
Artist     : Sponge Cola and Chito Miranda feat. Los Magno
Tabbed By  : Greg Magoncia
Tunning    : E Flat

Intro 

Wo-oh-oh-oh, wo-oh-oh-oh (2x)


     C      G      Am     F
|-------------------------------|
|-------------------------------|
|---5555---4444----------2222---| (2x)
|---5555---5555---7777---3333---|
|---3333---5555---7777---3333---|
|---xxxx---3333---5555---1111---|
    Wo-oh-oh-oh, wo-oh-oh-oh



Verse 1

C                         G
Wala pa 'tong lyrics kasi hindi pa to nasusulatan
Am                            F
Kahit na ano namang ilagay mo papasok yan
C                               G
Meron lang akong surprise sayo at ayokong mawala ang friendship mo
Am                             F(mute)
Tsong ano namang ikagagalit ko (Wo-oh-oh-oh, wo-oh-oh-oh)



Chorus
C             G
Girlfriend ko na'ng ex-girlfriend mo
Am        F
Teka lang medyo awkward 'to
C             G
Girlfriend ko na'ng ex-girlfriend mo
Am         F
Sayo na lang ex-girlfriend ko



Verse 2

C                            G
Let me recollect my thoughts please ,paano nga ba ito nangyari
Am                        F
Sa dami ng isda sa dagat, bakit siya pa ang iyong napili
C                         G
Pare teka lang hindi siya fish  that is just a figure of speech
Am                       F(mute)
I resent kasi your idiom (Wo-oh-oh-oh, wo-oh-oh-oh)



Chorus
C             G
Girlfriend ko na'ng ex-girlfriend mo
Am        F
Teka lang medyo awkward ito
C             G
Girlfriend ko na'ng ex-girlfriend mo
Am         F
Sayo na lang ex-girlfriend ko
C             G
Girlfriend ko na'ng ex-girlfriend mo
Am        F
Teka lang medyo awkward ito
C             G
Girlfriend ko na'ng ex-girlfriend mo
Am         F
Edi sayo na lang ex-girlfriend ko



Bridge


(Acoustic Guitar)

      Em       Bm
|---77777777---77---|
|---88888888---77---|
|---99999999---77---|
|---99999999---99---|
|---77777777---99---|
|---xxxxxxxx---77---|
Señorita, Posporo, La Mesa Dam

      Em       Bm
|---77777777---77---|
|---88888888---77---|
|---99999999---77---|
|---99999999---99---|
|---77777777---99---|
|---xxxxxxxx---77---|
Random Spanish words like Antonio Banderas

      Em       Bm
|---77777777---77---|
|---88888888---77---|
|---99999999---77---|
|---99999999---99---|
|---77777777---99---|
|---xxxxxxxx---77---|

(Bass)
|-------------------------------|
|-------------------------------|
|-------------------------------|
|--0--3s5--7-----12--10--7h8p7--|
Met up with her in cantina (It's about you girl)

      Em       Bm
|---77777777---77---|
|---88888888---77---|
|---99999999---77---|
|---99999999---99---|
|---77777777---99---|
|---xxxxxxxx---77---|

(Bass)
|------------|
|------------|
|------------|
|---0--3s2---|
Had 6 to 9 margaritas

     Am       Gm-C#m
|--------------------|
|--------------------|
|--------------------|
|--7777-7------5s10--|(play this chords simultaneously in this part) 
|--7777-7------5s10--|
|--5555-5------3s8---|

I was there shorty had a familiar face
And it was on his neck
His hands are on her neck
His hands on her waist
Trying to restrain her but no
She was having her way and
She took a ride on his spaceship on the basement
Wait
Blame it on the alcohol
Things in the dam was so vulnerable and out of control
She could have been anyone's ex
It was random y'all
But it's a small world  after all
And right now, well..

(A Cappella)

It's about you girl, It's just about you girl
It's about you girl, It's just about you girl


Instrumental

|---------------------------------------------------------|
|---------------------------------------------------------|
|---12-12-9------12-12-9------12-12-9---12~-9-9-------9---|
|----------9s10---------9s10---------9---------12-10------|
|---------------------------------------------------------|
|---------------------------------------------------------|

|---------------------------------------------------------|
|---------------------------------------------------------|
|---13-13-12--------13-13-12~-----------------------------|
|------------10s12----------------------------------------|
|---------------------------------------------------------|
|---------------------------------------------------------|

|---------------------------------------------------------|
|-----------------------------------------------13~-------|
|-------------------9/9-11/11-12/12-14/14-16/16-----------|
|---9/9-10/10-12/12---------------------------------------|
|---------------------------------------------------------|
|---------------------------------------------------------|


Chorus
C             G
Girlfriend ko na'ng ex-girlfriend mo
Am        F
Teka lang medyo awkward ito
C             G
Girlfriend ko na'ng ex-girlfriend mo
Am         F
Sayo na lang ex-girlfriend ko
C             G
Girlfriend ko na'ng ex-girlfriend mo
Am        F
Teka lang medyo awkward ito
C             G
Girlfriend ko na'ng ex-girlfriend mo
Am         F
Edi sayo na lang ex-girlfriend ko
C                        G
Maybe one day we will be friends again
Am                F
Till then i'll be missing you my friend

            
            
Suggest correction
Creating personal tab
Creating personal tab
You can edit any tab online and save it as your Personal.

You can edit, replace or remove any tab part or add personal notes – all changes will be seen only by you.

Personal tabs can be accessed anytime from any device, even offline.
Learn more »
Give kudos to tab author, rate the tab!
1 2 3 4 5
comments
print report bad tab
guest
You may want to rate the tab now too:
select rating
Wanna post a correction for this tab? Suggest correction