Oops, an error
Loading. Please wait.

Xgf Tab

version 2
version 2

Whole song

4,559 views 3 this week
2 commentsread comments
1 2 3 4 5
please rate
add to favorites
launch autoscroll
font size
0
reset
how to read this tab
guitar tuner
Autoscroll
slow
fast
+/-
esc
set tempo
stop
Help us to improve Ultimate-Guitar.com Take our survey!
×
Author
Difficulty
Song Title:   XGF
Artist/Band:  Spongecola ft. Chito Miranda (& Los Magnos)

Tabbed By:    Pauz Prima (primesenthyx@yahoo.com)

----------------------------------------------------------------------------------------------


INTRO: B-F#-G#m-E (2x)

|--------------------------------------|
|--------------------------------------|
|--------------------------------------|
|-4-4-44---4-444-444-6-6-666-2-222-222-|
|-2-2-22-0-4-444-444-6-6-666-2-222-222-|
|--------0-2-222-222-4-4-444-0-000-000-|


VERSE 1: B-F#-G#m-E (2x) - palm-muted

|--------------------------------------------------------------------|
|--------------------------------------------------------------------|
|--------------------------------------------------------------------|
|-----1--------------1-----------------------------------------------|
|-2-4---2--2-4-2~--4---2-2--2-4-2~------1--------------1-------------|
|-----------------------------------2-4---2--2-4-2~--4---2-2--2-4-2~-|

|-------------------------------------------------------------|
|-------------------------------------------------------------|
|-------------------------------------------------------------|
|---------------------------------------2---2----2-----2-2b~~-|
|-----2------2---------2------2-------2---2----2-----2--------|
|-4-4---4--4---4~--4-4---4--4---4~--0--------------0----------|

|--------------------------------------------------------------------|
|--------------------------------------------------------------------|
|--------------------------------------------------------------------|
|-----1--------------1-----------------------------------------------|
|-2-4---2--2-4-2~--4---2-2--2-4-2~------1--------------1-------------|
|-----------------------------------2-4---2--2-4-2~--4---2-2--2-4-2~-|

|------------------------------|
|------------------------------|
|------------------------------|
|---------------------------2~-|
|----2-1----2-1---2-1---2-1-2~-|
|-4-------4-----4-----4-----0~-|


CHORUS: B-F#-G#m-E (2x)

|--------------------------------------|
|--------------------------------------|
|--------------------------------------|
|-4-4-44---4-444-444-6-6-666-2-222-222-|
|-2-2-22-0-4-444-444-6-6-666-2-222-222-|
|--------0-2-222-222-4-4-444-0-000-000-|


VERSE 2: B-F#-G#m-E (2x) - palm-muted

|--------------------------------------------------------------------|
|--------------------------------------------------------------------|
|--------------------------------------------------------------------|
|-----1--------------1-----------------------------------------------|
|-2-4---2--2-4-2~--4---2-2--2-4-2~------1--------------1-------------|
|-----------------------------------2-4---2--2-4-2~--4---2-2--2-4-2~-|

|-------------------------------------------------------------|
|-------------------------------------------------------------|
|-------------------------------------------------------------|
|---------------------------------------2---2----2-----2-2b~~-|
|-----2------2---------2------2-------2---2----2-----2--------|
|-4-4---4--4---4~--4-4---4--4---4~--0--------------0----------|

|--------------------------------------------------------------------|
|--------------------------------------------------------------------|
|--------------------------------------------------------------------|
|-----1--------------1-----------------------------------------------|
|-2-4---2--2-4-2~--4---2-2--2-4-2~------1--------------1-------------|
|-----------------------------------2-4---2--2-4-2~--4---2-2--2-4-2~-|

|------------------------------------------------|
|------------------------------------------------|
|-------------------------------/4-3----/4-3-----|
|------------------------------------4-------4~~-|
|----2-1----2-1---2-1---2-1----------------------|
|-4-------4-----4-----4-----4~-------------------|


REPEAT CHORUS (2x)


RAP PART: Ebm-Bbm (4x) G#m-F#-B (4x)

|-6-6666-6-6---6-6666-|
|-7-7777-7-7-x-6-6666-|
|-8-8888-8-8-x-6-6666-|
|-8-8888-8-8-x-8-8888-| 4x
|-6-6666-6-6-x-8-8888-|
|--------------6-6666-|

|--------------------|
|--------------------|
|--------------------|
|-6-66-66-66-6~-4/9~-| 4x
|-6-66-66-66-6~-4/9~-|
|-4-44-44-44-4~-2/7~-|


SOLO:

|--------------------------------------------------------------|
|-xxxx---------------------------------------------------------|
|-xxxx-11-11-8-------11-11-8-------11-11-8---11~--8-8------8~~-|
|-xxxx---------8h9~----------8h9~----------9----------11-9-----|
|-xxxx---------------------------------------------------------|
|--------------------------------------------------------------|

|----------------------------------------------------------------|
|-12-12-11---------12-12-11~~------------------------------12~~~-|
|-------------11~-------------------------------------1111-------|
|----------13------------------------------88-99-1111------------| pwede ring mag tremolo picking
|------------------------------------66-99-----------------------| sa part na 'to.
|-------------------------------4747-----------------------------|
                                                |_eleven_|


REPEAT CHORUS (2x)


OUTRO: B-F#-G#m-E (2x)

|-------------------------------------|
|-------------------------------------|
|-------------------------------------|
|-44444444-44444444-66666666-22222222-|
|-22222222-44444444-66666666-22222222-|
|----------22222222-44444444-00000000-|

|-------------------------|
|-------------------------|
|-------------------------|
|-44444444-44444444-6-2~~-|
|-22222222-44444444-6-2~~-|
|----------22222222-4-0~~-|


~ - let ring
/ - slide up
h - hammer on
b - bend

-------------------------------------------------------------------------------------

SenthyX Zone
Senthyx Band
Suggest correction
Give kudos to tab author, rate the tab!
1 2 3 4 5
comments
print report bad tab
2 comments total.
+1 reply
edifier88 10 wrote on September 22 2012, 08:12 am

ayus :D ang ganda ng tab

0 reply
pauz_flickz 1,264 wrote on September 22 2012, 09:58 pm

maraming salamat po! :D

guest
You may want to rate the tab now too:
select rating
Wanna post a correction for this tab? Suggest correction