Oops, an error
Loading. Please wait.

Presente Chords

34 views 1 this week
no commentswrite comment
1 2 3 4 5
3 more votes to show rating
add to favorites
launch autoscroll
font size
0
reset
transpose
0
reset
simplify chords
display chords
guitar tuner
×
Best way to learn
"Presente"
Autoscroll
slow
fast
+/-
esc
set tempo
stop
Gm          Cm7        C7
e|---3------- e|---3------ e|--3------
b|---3------- b|---4------ b|--5------
g|---3------- g|---3------ g|--3------
d|---5------- d|---5------ d|--5------
a|---3------- a|---3------ a|--3------
e|---3------- e|---3------ e|--3------


         Gm         Cm7       C7          DOm7
e|-----------| ---------- |---------  |----------
b|-----------| ---------- |---------  |----------
g|-5h/3------| -5h/3----- |-5h/3----  |-5h/3-----
d|-------5---| -------5-- |-------5-  |-------5--
a|-----------| ---------- |---------  |----------
e|-----------| ---------- |---------  |----------

Gm                               Cm7
Perdido entre estas cuatro paredes
                             C7
prisionero de mi habitacion
                               Cm7
presiento que las cosas suceden

cuando no tienen explicacion
Bb                   F 
Hay un lugar esperandome
          F#m          Gm
algo de amor engañandome
                         D                       Bb
quiero evitar mi destino y tomo por el mal camino y
                              F                F#m
quiero llegar hacia un buen final que haga cambiarme..

SOLO(SOLm Cm7 C7 DOm7)

EN ESTA ESTROFA ESTO PUEDE ANDAR O SUEN LOS ACORDES NORMALES
  Gm  Cm7  C7   DOm7
e|--------------------|
b|--------------------|
g|-3-----3-----3-----3|
d|-5-----4-----3-----2|
a|--------------------|
e|--------------------|
Gm
En vista de lo que me antecede
Cm7
voy a recuperar la razon
C7
para dejar mi humilde presente
Cm7
a este abandonado mundo de hoy
Bb                     F 
Hay un lugar esperandome
        F#m           Gm
algo de amor engañandome
                          D                        Bb
quiero evitar mi destino si tomo por el mal camino
                              F                     F#m   Bb
voy a llegar hacia un buen final que haga cambiarmee..
                      F 
Hay un lugar esperandome
          F#m        Gm          D           Bb
algo de amor engañandome, engañandome y engañandome
                               F              F#m         Bb
quiero llegar hacia un buen final que haga cambiaaaaaaaaaarme


ESPERO QUE LES SUENE COMO A MI
Suggest correction
Give kudos to tab author, rate the tab!
1 2 3 4 5
comments
print report bad tab
guest
You may want to rate the tab now too:
select rating
Wanna post a correction for this tab? Suggest correction