Oops, an error
Loading. Please wait.

Killer Girl Bass

56 views 1 this week
no commentswrite comment
1 2 3 4 5
3 more votes to show rating
add to favorites
×
Save as Personal and add changes to this tab that will be seen only by you. Learn more ›
×
You can save this tab as Personal to edit and correct it or add notes. All changes will be seen only by you. Learn more »
save as personal
new!
launch autoscroll
font size
0
reset
guitar tuner
Autoscroll
slow
fast
+/-
esc
set tempo
stop
 Aqui les va el bajo también


 INTRODUCCIÓN
 |---------------4-------------------4--------
 |-----2-2-5-2--2-5-2-5----2-2-5-2--2-5-2-5-3-
 |-3--3-3--------------3--3-3-----------------
 |--------------------------------------------

 --2-5-2------7-4-4----2-5-2------------------
 -3-----3-5--5---5-3--3-----3-5-5-3-3-2-2-0-0-
 ---------------------------------------------
 ---------------------------------------------

 ---------------4-------------------4---------
 -----2-2-5-2--2-5-2-5----2-2-5-2--2-5-2-5-3--
 -3--3-3--------------3--3-3------------------
 ---------------------------------------------

 --2-5-2------7--4----2-5-2------------------|
 -3-----3-5--5----3--3-----3-5-5-3-3-2-2-0-0-|
 --------------------------------------------|
 --------------------------------------------|


 VERSO 1
 |-------------2-0-2---2-2-0-0-2-------------
 |--2-5-2-2-5-2------------------2--3-3----3-
 |-3-----3-----------------------------3-3---
 |-------------------------------------------

 ---------------------------------
 -5-5---5-3-2--2-2----------------
 ----5-5--------2-----------------
 -------------------1-1-1--3-3-3--

 ----------------2-0-2---2-2-0-0-2-------------
 --2-5-2-5-2-5-2-------------------2--3-3----3-
 -3-------3------------------------------3-3---
 ---------------------------------------------

 --------------------------------|
 -5-5---5-3-2--2-2---------------|
 ----5-5--------2----------------|
 -------------------1-1-1--3-3-3-|


 CORO
 |-------------------7---------------------------
 |--9-7-9-9-7-9-9-7-9-9-9------------------5-----
 |-7-----7-----7-------7--7-5-7-7-5-7-7-5-7-7-5--
 |-----------------------5-----5-----5-----------

 -------------------7----------------------------
 --9-7-9-9-7-9-9-7-9-9-9------------------5------
 -7-----7-----7-------7--7-5-7-7-5-7-7-5-7-7-5---
 -----------------------5-----5-----5------------

 -------------------7----------------------------
 --9-7-9-9-7-9-9-7-9-9-9------------------5------
 -7-----7-----7-------7--7-5-7-7-5-7-7-5-7-7-5---
 -----------------------5-----5-----5------------

 ----------------------------------------------------|
 ----------------------------------------------------|
 -8---8-8-8--10---10-10-10--7---7-7-7--8-8--8--10-10-|
 ----------------------------------------------------|


 INTERMEDIO
 |---------------4-------------------4---------
 |-----2-2-5-2--2-5-2-5----2-2-5-2--2-5-2-5-3--
 |-3--3-3--------------3--3-3------------------
 |---------------------------------------------

 --2-5-2------7--4----2-5-2------------------|
 -3-----3-5--5----3--3-----3-5-5-3-3-2-2-0-0-|
 --------------------------------------------|
 --------------------------------------------|


 VERSO 2
 |-------------2-0-2---2-2-0-0-2-------------
 |--2-5-2-2-5-2------------------2--3-3----3-
 |-3-----3-----------------------------3-3---
 |-------------------------------------------

 ---------------------------------
 -5-5---5-3-2--2-2----------------
 ----5-5--------2-----------------
 -------------------1-1-1--3-3-3--

 ----------------2-0-2---2-2-0-0-2-------------
 --2-5-2-5-2-5-2-------------------2--3-3----3-
 -3-------3------------------------------3-3---
 ---------------------------------------------

 --------------------------------|
 -5-5---5-3-2--2-2---------------|
 ----5-5--------2----------------|
 -------------------1-1-1--3-3-3-|


 CORO
 |-------------------7---------------------------
 |--9-7-9-9-7-9-9-7-9-9-9------------------5-----
 |-7-----7-----7-------7--7-5-7-7-5-7-7-5-7-7-5--
 |-----------------------5-----5-----5-----------

 -------------------7----------------------------
 --9-7-9-9-7-9-9-7-9-9-9------------------5------
 -7-----7-----7-------7--7-5-7-7-5-7-7-5-7-7-5---
 -----------------------5-----5-----5------------

 -------------------7----------------------------
 --9-7-9-9-7-9-9-7-9-9-9------------------5------
 -7-----7-----7-------7--7-5-7-7-5-7-7-5-7-7-5---
 -----------------------5-----5-----5------------

 ----------------------------------------------------|
 ----------------------------------------------------|
 -8---8-8-8--10---10-10-10--7---7-7-7--8-8--8--10-10-|
 ----------------------------------------------------|


 SOLO TROMPETA
 |---2---2------------2---2------------2---2--
 |----3---3--2---2-----3---3--2---2-----3---3-
 |-5---5------3---3-5---5------3---3-5---5----
 |---------5---5------------5---5-------------

 ------------------------------------------------
 ---2---2---1-4--2-0-2------7-----7--------------
 ----3---3-2-------------5-8-8-5-8-8----7-----7--
 -5---5------------------------------5-8-8-5-8-8-

 -----------------------------------------------|
 -----------------------------------------------|
 --6-9-6-6-9-6--------------------------7-5-8-7-|
 -7-----7------12-12-12-12-12-12-12-12----------|


 SOLO PIANO
 |---------------2-0-2---2-2-0-0-2-------------
 |---------------------------------2--3-3----3-
 |----7-----7----------------------------3-3---
 |-5-8-8-5-8-8---------------------------------

 --------------------------------
 -5-5---5-3-2--2-2---------------
 ----5-5--------2----------------
 -------------------1-1-1--3-3-3-

 ---------------2-0-2---2-2-0-0-2-------------
 ---------------------------------2--3-3----3-
 ----7-----7----------------------------3-3---
 -5-8-8-5-8-8---------------------------------

 --------------------------------|
 -5-5---5-3-2--2-2---------------|
 ----5-5--------2----------------|
 -------------------1-1-1--3-3-3-|

 CORO
 |-------------------7---------------------------
 |--9-7-9-9-7-9-9-7-9-9-9------------------5-----
 |-7-----7-----7-------7--7-5-7-7-5-7-7-5-7-7-5--
 |-----------------------5-----5-----5-----------

 -------------------7----------------------------
 --9-7-9-9-7-9-9-7-9-9-9------------------5------
 -7-----7-----7-------7--7-5-7-7-5-7-7-5-7-7-5---
 -----------------------5-----5-----5------------

 -------------------7----------------------------
 --9-7-9-9-7-9-9-7-9-9-9------------------5------
 -7-----7-----7-------7--7-5-7-7-5-7-7-5-7-7-5---
 -----------------------5-----5-----5------------

 ----------------------------------------------------|
 ----------------------------------------------------|
 -8---8-8-8--10---10-10-10--7---7-7-7--8-8--8--10-10-|
 ----------------------------------------------------|

 FINAL
 |---------------4-------------------4--------
 |-----2-2-5-2--2-5-2-5----2-2-5-2--2-5-2-5-3-
 |-3--3-3--------------3--3-3-----------------
 |--------------------------------------------

 --2-5-2------7-4-4----2-5-2------------------
 -3-----3-5--5---5-3--3-----3-5-5-3-3-2-2-0-0-
 ---------------------------------------------
 ---------------------------------------------

 ---------------4-------------------4---------
 -----2-2-5-2--2-5-2-5----2-2-5-2--2-5-2-5-3--
 -3--3-3--------------3--3-3------------------
 ---------------------------------------------

 --2-5-2------7--4----2-5-2--------------------|
 -3-----3-5--5----3--3-----3-5-5-3-3-2-2-0-0---|
 ----------------------------------------------|
 --------------------------------------------8-|

 espero que les guste........

 larga vida al ska en Colombia
Suggest correction
Give kudos to tab author, rate the tab!
1 2 3 4 5
comments
print report bad tab
guest
Wanna post a correction for this tab? Suggest correction