Oops, an error
Loading. Please wait.

Advance Cassette Tab

2,241 views 6 this week
2 commentsread comments
1 2 3 4 5
x 3
add to favorites
launch autoscroll
font size
0
reset
how to read this tab
guitar tuner
×
Best way to learn
"Advance Cassette"
Autoscroll
slow
fast
+/-
esc
set tempo
stop
This isn't perfect but heres a how it goes. The youtube video helped tremendously.
              
             
               VERSE 1

e|----------------------------------|
B|----------------------------------|
G|----------------------------------|
D|----------------------------------|
A|-----6-------6-------6---7---6----|
E|-7-7---7-6-6---6-4-4---4---4---4--|
  
Getting caught's made me think it over and it told me

e|----------------------------------|
B|----------------------------------|
G|----------------------------------|
D|----------------------------------|
A|-9---12---11---4------------------|
E|---0----0----0---0----------------|
  
That you're never coming back here again

e|----------------------------------|
B|----------------------------------|
G|----------------------------------|
D|----------------------------------|
A|-----6-------6-------6---7---6----|
E|-7-7---7-6-6---6-4-4---4---4---4--|
  
We've been doing things the same way for so long

e|--------------------------------------------------|
B|--------------------------------------------------|
G|--------------------------------------------------|
D|--------------------------------------------------|
A|-9-9---9-9---9-----6-------6---9---12---11---4----|
E|-----0-----0---7-7---7-7-7---7---0----0----0---0--|
 
That it took me aback I dont think that Ill ever hear that sad song again

                CHORUS

e|-----------------------------------------------------------|
B|-----------------------------------------------------------|
G|-----------------------------------------------------------|
D|---------9-------------------------------------------------|
A|-----6-----6---6-------6-------6-------6---7---6-----------|
E|-7-7---7-----7-----7-7---7-6-6---6-4-4---4---4---4---------|

Dont tell me I've lost you
No dont say that I've lost you
e|-----------------------------------------------------------|
B|-----------------------------------------------------------|
G|-----------------------------------------------------------|
D|-----------------------------------------------------------|
A|-9---12---11---4-------------------------------------------|
E|---0----0----0---0-----------------------------------------|

Advance cassette. I just cant believe it
                 REPEAT

                 INSTRUMENTAL INTERLUDE

e|--------------------------------------------------------------------|
B|--------------------------------------------------------------------|
G|--------------------------------------------------------------------|
D|---------9------------9---8---------6---5---------------------------|
A|-----6-----6---6----6---------9---6-----6---------------------------|
E|-7-7---7-----7----7-----7---7---4-----4-4---------------------------|

e|--------------------------------------------------------------------|
B|--------------------------------------------------------------------|
G|--------------------------------------------------------------------|
D|-4/6-6-6-6-4-4-4-4-----4-------4-------2-------2-------2-------2----|
A|-4/6-6-6-6-4-4-4-4-4-4-4-4-4-4-4-4-2-2-2-2-2-2-2-2-1-1-1-1-1-1-1-1--|
E|-------------------2-2-2-2/3-3-3-3-0-0---0-0-0---0-0-0---0-0-0---0--|

                 VERSE 2
You'll know by the look on their faces when they pass by you
You've been dropped off on the Texas highway
I've been out here for so long that I'm not sure
How you wound me so tight
I'm afraid I wont ever hear that sad song again

                 CHORUS

               INSTRUMENTAL INTERLUDE

         END SONG ON 
e|----------------------|
B|----------------------|
G|----------------------|
D|----------------------|
A|----------------------|
E|--------7-------------|
Suggest correction
Give kudos to tab author, rate the tab!
1 2 3 4 5
comments
print report bad tab
2 comments total.
0 reply
mr_salty 53 Aug 28, 2011 08:37 PM

Excellent job, thanks! I've been looking for a good tab for this for a long time.

I think the only thing I'd change is those D's at the end of the "interlude" should be E's I believe (i.e. he's playing 012xxx not 010xxx).

guest
You may want to rate the tab now too:
select rating
Wanna post a correction for this tab? Suggest correction