Oops, an error
Loading. Please wait.

Chicago At Night Bass Tab

747 views 3 this week
no commentswrite comment
1 2 3 4 5
please rate
add to favorites
launch autoscroll
font size
0
reset
guitar tuner
Tab Pro tools
  • play this tab
  • loop segment
  • change instrument
  • show fretboard
  • metronome
×
Best way to learn
"Chicago At Night"
Autoscroll
slow
fast
+/-
esc
set tempo
stop
Difficulty
novice
Spoon - Chicago at Night

Bass tab

Live version from KCRW's Morning Becomes Eclectic on 01.20.10

As seen on youtube

http://www.youtube.com/watch?v=HpRlnoha2VU

timing/rhythm not accurately represented in the follow tab.

tabbed by James Gatz


intro/verse

---------------------------------------|
-------------6/4-4--4----4-3-----------|
-------7/4-4----------4--------0-0-2-4-|
-0h5-5---------------------------------|

------------------------------------------|
-------------6/4-4--4----4--3-----3-------|
-------7/4-4----------4---------4---0-2-4-|
---5-5------------------------------------|

---------------------------------------|
-------------6/4-4--4----4-3-----------|
-------7/4-4----------4--------0-0-2-4-|
---5-5---------------------------------|

---------------------------------------------------------|
-------------6/4-4--4----4-3-3-6/3-2-2-4/2---------------|
-------7/4-4----------4--------------------2-2--2-2p0h2--|
---5-5---------------------------------------------------|

------------------------------------------------------|
-4-4--4--------3-3--3-6/3-2-2--2-4/2------------------|
--------4-2/4-----------------------2-2--2-2p0h2------|
------------------------------------------------------|

end #1

---------------------------------------------|
-----4/7h9---9/12----------------------------|
-5-------------------------------------------|
------------------0h10-10-10-10-10-10-10-10--|


repeat  intro/verse and end with

end #2
------------------------------------------------------------------------------------|
-----4/7h9--9p7---7/12--------------------------------------------------------------|
-5--------------9-------------------------------------------------------------------|
-----------------------0h10-10-10-10-10-10-10-10---(10*~ octave lower with effects)-|

*or drop D tune the guitar/ so it will alter the tabs E string down 1 whole step.

solo

---------------------------------------------------------|
-2-44-2-4-4---2-44-2-4-4---2-44-2-4-4---2-4-4-4-2-4-4-4--|
---------------------------------------------------------|
---------------------------------------------------------|


---------------------------------------|
-------------6/4-4--4----4-3-----------|
-------7/4-4----------4--------0-0-2-4-|
-0h5-5---------------------------------|

------------------------------------------|
-------------6/4-4--4----4--3-----3-------|
-------7/4-4----------4---------4---0-2-4-|
---5-5------------------------------------|

---------------------------------------|
-------------6/4-4--4----4-3-----------|
-------7/4-4----------4--------0-0-2-4-|
---5-5---------------------------------|


------------------------------------------|
-------------6/4-4--4----4--3-----3-------|
-------7/4-4----------4---------4---0-2-4-|
---5-5------------------------------------|

------------------------------------------------------------------------------------|
-----------------4-4-4-4-4-4-4-4-3-3-3-3-3-3-3-3-2-2-2-2-2-2-2-2--------------------|
---------4-4-4-4-------------------------------------------------2-2-2-2-2-2-2-2/9~-|
-5-5-5-5----------------------------------------------------------------------------|
comments
We did not receive enough feedback on this tab! Please rate:
print report bad tab
1 2 3 4 5
I want to post or [tab]
guest
You may want to rate the tab now too:
select rating
Please do not post tabs as comments. Select "correction" instead!