Oops, an error
Loading. Please wait.

Dont Make Me A Target Tab

version 2
version 2

Whole song

14,165 views 27 this week
3 commentsread comments
1 2 3 4 5
x 11
add to favorites
launch autoscroll
font size
0
reset
how to read this tab
guitar tuner
Autoscroll
slow
fast
+/-
esc
set tempo
stop
Help us to improve Ultimate-Guitar.com Take our survey!
×
Author
Difficulty
intermediate
-------------------------------------------------------------------------------
                             DON'T MAKE ME A TARGET - Spoon
-------------------------------------------------------------------------------
Tabbed by: Jumpeplowski
Email: jumpeplowski@hotmail.com

Tuning: Standard

There are parts of the song that have 2 guitars but they are combined into the 
same guitar the way the song is played live.


INTRO

e|----------------------------------------------------------0-----|
B|----------------------------------------------------------0-----|
G|----------------------------------------------------------4--4--|
D|5-5-5-5-5-5-5-5-5-5-5-5-5-5-7-5-5-5-5-5---------7-7-7-7---5--5--|
A|7-7-7-7-6-6-6-6-5-5-5-5-4-4-4-4-3-3-3-3-5-5-5-5-6-6-6-6---7--7--|
E|----------------------------------------7-7-7-7-7-7-7-7-0-----0-|


VERSE 1

e|----------------------------------------------------------0-----|
B|----------------------------------------------------------0-----|
G|----------------------------------------------------------4--4--|
D|5-5-5-5-5-5-5-5-5-5-5-5-5-5-7-5-5-7-7-7-7-7-7-7-7-7-7-7---5--5--|
A|7-7-7-7-6-6-6-6-5-5-5-5-4-4-4-4-3-3-3-3-5-5-5-5-6-6-6-6---7--7--|
E|----------------------------------------7-7-7-7-7-7-7-7-0-----0-|

e|-------------------------------------------------------------0--|
B|-------------------------------------------------------------0--|
G|-------------------------------------------------------------4--|
D|5-5-5-5-5-5-5-5-5-5-5-5-5-5-5-5-5-5-5-5-7-7-7-7-7-7-7-7------5--|
A|7-7-7-7-6-6-6-6-5-5-5-5-4-4-4-4-3-3-3-3-5-5-5-5-6-6-6-6------7--|
E|----------------------------------------7-7-7-7-7-7-7-7-0-----0-|


CHORUS 1

e|--------------------------------------------------|
B|--------------------------------------------------|
G|4---4---4---4-----------------------------9---9\--|
D|5---5---4---4----/5--5--7---7--/10---10---9---9\--|
A|5-----------------7---7-7---7---10---10-----------|
E|3---------------0---------------------------------|


VERSE 2

e|----------------------------------------------------------------|
B|----------------------------------------------------------------|
G|----------------------------------------------------------4--4--|
D|5-5-5-5-5-5-5-5-5-5-5-5-5-5-7-5-5-7-7-7-7-7-7-7-7-7-7-7---5--5--|
A|7-7-7-7-6-6-6-6-5-5-5-5-4-4-4-4-3-3-3-3-5-5-5-5-6-6-6-6---7--7--|
E|----------------------------------------7-7-7-7-7-7-7-7-0-----0-|

e|----------------------------------------------------------0-----|
B|----------------------------------------------------------0-----|
G|-----------------------------------------7-7--------------4--4--|
D|5-5-5-5-5-5-5-5-5-5-5-5-5-5-7-5-5-7-7-7--6-6-6-6-7-7------5--5--|
A|7-7-7-7-6-6-6-6-5-5-5-5-4-4-4-4-3-3-3-3-------5--6-6-6----7--7--|
E|----------------------------------------7-----7-7-----7-0-----0-|


CHORUS 2

e|--------------------------------------------------------|
B|--------------------------------------------------------|
G|4-4-4-4-4-4-4-4-----------------9--9--9--9--9--9--9--9--|
D|5-5-5-5-4-4-4-4-5-5-5-5-7-7-7-7-10-10-10-10-9--9--9--9--|
A|5-5-5-5---------7-7-7-7-7-7-7-7-10-10-10-10-10-10-10-10-|
E|--------------------------------8--8--8--8--------------|


VERSE 3

e|----------------------------------------------------------------|
B|----------------------------------------------------------------|
G|----------------------------------------------------------4--4--|
D|5-5-5-5-5-5-5-5-5-5-5-5-5-5-7-5-5-5-5-5-------------------5--5--|
A|7-7-7-7-6-6-6-6-5-5-5-5-4-4-4-4-3-3-3-3-5-5-5-5-6-6-6-6---7--7--|
E|----------------------------------------7-7-7-7-7-7-7-7-0-----0-|

e|----------------------------------------------------------0-----|
B|----------------------------------------------------------0-----|
G|----------------------------------------------------------4--4--|
D|5-5-5-5-5-5-5-5-5-5-5-5-5-5-7-5-5-7-7-7-7-7-7-7-7-7-7-7---5--5--|
A|7-7-7-7-6-6-6-6-5-5-5-5-4-4-4-4-3-3-3-3-5-5-5-5-6-6-6-6---7--7--|
E|----------------------------------------7-7-7-7-7-7-7-7-0-----0-|


CHORUS 3

e|--------------------------------------------------------|
B|--------------------------------------------------------|
G|4-4-4-4-4-4-4-4-8-8-8-8-0-0-0-0-9--9--9--9--9--9--9--9--|
D|5-5-5-5-4-4-4-4-9-9-9-9-5-5-5-5-10-10-10-10-9--9--9--9--|
A|5-5-5-5---------9-9-9-9-7-7-7-7-10-10-10-10-10-10-10-10-|
E|----------------7-7-7-7---------8--8--8--8--------------|


BREAK

e|--------------------------------|
B|--------------------------------|
G|-----------------------------4-4|
D|5-5-5-5-5-5-57755-5-7-7-7-7--5-5|
A|7-7-6-6-5-5-444-3-3-5-5-6-6--7-7|
E|--------------------7-7-7-7-0-0-|

e|--------------------------------------0-0-0-|
B|0-0-0-0-0-0-00000-0-0-0-0-0-0-----0-0-0-0-0-|
G|0-0-0-0-0-0-00000-0-0-0-0-0-4-4-4-4-4-4-4-4-|
D|5-5-5-5-5-5-55555-5-7-7-7-7-5-5-5-5-5-5-5-5-|
A|7-7-6-6-5-5-444-3-3-5-5-6-6-7-7-7-7-7-7-7-7-|
E|--------------------7-7-7-7-0-0-0-0-0-0-0-0-|

e|----------------0----0------------|
B|----------------0----0------------|
G|----------------0----0------------|
D|----------------0----0------------|
A|7-----------------------------7\0-|
E|0-----------------------------7\0-|

e|-------------------------------------------------------------------|
B|-------------------------------------------------------------------|
G|9---9---9---9--9-9--9-9--9---9--9-9--9-9--9---9--9-9--9-9--9---9---|
D|10--10--10--10-1010-1010-10--10-1010-1010-10--10-1010-1010-10--10--|
A|10--10--10--10-10x--1010-10--10-10x--1010-10--10-10x--1010-10--10--|
E|8---8---8---8--8-10-8-8--8---8--8-10-8-8--8---8--8-10-8-8--8---8---|

e|--------------------------------|
B|8-------------------------------|
G|9-------------------------------|
D|9-9-9-99--9-9-99--9-9-99--9-9-9-|
A|7-7-7-77--7-7-77--7-7-77--7-7-7-|
E|0-0-0-00660-0-00660-0-00660-0-0-|

e|----------------------------------------|
B|----------------------------------------|
G|5-5-5-5\44-4-4-445-5-5-IMPROV...........|
D|7-7-7-7--7-7-7-7-7-7-7------------------|
A|----------------------------------------|
E|----------------------------------------|

e|--------------------------------|
B|8-8-8-88--8-8-88--8-8-88--8-8-9-|
G|9-9-9-99--9-9-99--9-9-99--9-9-9-|
D|9-9-9-99--9-9-99--9-9-99--9-9-9-|
A|7-7-7-77--7-7-77--7-7-77--7-7-7-|
E|0-0-0-00660-0-00660-0-00660-0-0-|

e|-------------------------------------------------------------------------|
B|-------------------------------------------------------------------------|
G|9---9---9---9--9-9--9-9--9---9--9-9--9-9--9---9--9-9---------------------|
D|10--10--10--10-1010-1010-10--10-1010-1010-10--10-1010 IMPROV.............|
A|10--10--10--10-10x--1010-10--10-1010-1010-10--10-1010--------------------|
E|8---8---8---8--8-10-8-8--8---8--8-8--8-8--8---8--8-8---------------------|

e|--------------------------------|
B|8-8-8-888-8-8-888-8-8-888-8-8-8-|
G|9-9-9-999-9-9-999-9-9-999-9-9-9-|
D|9-9-9-999-9-9-999-9-9-999-9-9-9-|
A|7-7-7-777-7-7-777-7-7-777-7-7-7-|
E|0-0-0-000-0-0-000-0-0-000-0-0-0-|

e|--------------------------------------8--------------|
B|3---3-------------------0-------8-----8--------------|
G|4---4---4---4-----------0-------9-----9-----9----9---|
D|5-5-5-5-4---4-----5-5---7---7-7/10-10-10-10-9----9---|
A|5---------5---5/7-7---7-7-7-----10------------10-10--|
E|----------------0------------------------------------|


SOLO

e|----------------------------------------------------------------|
B|----------------------------------------------------------------|
G|----------------------------------------------------------------|
D|5---5-------5---5---7---7-5---5-5---5-------5---5---7---7-5---5-|
A|7--7--7----7--7-6---6---6---6---5--5--5----5--5-4---4---4---4---|
E|----------------------------------------------------------------|

e|----------------------------------------------------0-----------|
B|----------------------------------------------------0-----------|
G|----------------------7-----------------------------4-----4-----|
D|5--7---7---57---------6---------------7-------------5-----5-----|
A|3--3---3------3----5--------55-----6--6---6---------7-----7-----|
E|----------------7-------------7-7--7--------7---0-----------0---|


CHORUS 4

e|--------------------------------------------------------|
B|------------------------0-------------------0--0--0--0--|
G|4---4---4---4-----------0-------9--9--9--9--9--9--9--9--|
D|5---5---4---4---5---5---7---7---10-10-10-10-9--9--9--9--|
A|5-5-5-5-5-5-5-5-7---7---7-7-7-7-10-10-10-10-10-10-10-10-|
E|3---3-------------0---0---------8--8--8--8--------------|


OUTRO

e|----------------------------------------------------------------|
B|-------------------------------------------------------------0--|
G|------------------------------------------------------------4---|
D|5-5-5-555-5-5-5-5-5-5-555-5-7-555-5-5-557-7-7-7-7-7-7-7---5-----|
A|7-7-7-776-6-6-6-5-5-5-554-4-4-443-3-3-335-5-5-556-6-6-66-7-7----|
E|----------------------------------------7-7-7-777-7-7-770-----0-|



************************************

| /   slide up
| \   slide down
| h   hammer-on
| p   pull-off
| ~   vibrato
| +   harmonic
| x   Mute note
| b   Bend
| pb  Pre-bend
| br  Bend release
| pbr Pre-bend release
| brb Bend release bend

************************************
Suggest correction
comments
print report bad tab
3 comments total.
0 reply
rossandliam 10 Mar 02, 2011 04:39 PM

This is perfect.

0 reply
forstringwonder 51 Mar 08, 2011 01:55 PM

beautiful

0 reply
Lolcohol 209 Aug 07, 2013 04:55 AM

Excellent. Thanks so much! Perfect

guest
You may want to rate the tab now too:
select rating
Wanna post a correction for this tab? Suggest correction