Oops, an error
Loading. Please wait.

Dont You Evah Tab

version 1
version 1

Whole song

37,041 views 18 this week
4 commentsread comments
1 2 3 4 5
x 12
add to favorites
launch autoscroll
font size
0
reset
how to read this tab
guitar tuner
Autoscroll
slow
fast
+/-
esc
set tempo
stop
Help us to improve Ultimate-Guitar.com Take our survey!
×
Author
Difficulty
novice
----------------------------------------------------------------------------
                             spoon- don’t you evah
----------------------------------------------------------------------------
Tabbed by:nimajneb19521
Email:dsbroome5@adelphia.net
my first tab. one of my favorite newish songs, easy to get the hang of.
Tuning: standard
Bass line thru out the song
e|--------------------------------------------------------------------------|
B|--------------------------------------------------------------------------|
G|--------------------------------------------------------------------------|
D|--------------------------------------------------------------------------|
A|--------------------------------------------------------------------------|
E|9--7-4-4--11—9-7-4-7---9-7-4-4--11--9-7-4-7-------------------------------|
First guitar part and starts in the verse
e|--------------------------------------------------------------------------|
B|--------------------------------------------------------------------------|
G|--------------------------------------------------------------------------|
D|6-6-6--4-4-4--3-3-3--4-4-4--6-6-6--4-4-4--3-3-3--4-4-4--------------------|
A|--------------------------------------------------------------------------|
E|--------------------------------------------------------------------------|
After above part (all sliding up and down)
e|---------------------------------------------------------------------------|
B|---------------------------------------------------------------------------|
G|4-4-4--3-3-3--1-1-1--3-3-3--4-4-4--3-3-3--1-1-1--3-3-3---------------------|
D|6-6-6--4-4-4--3-3-3--4-4-4--6-6-6--4-4-4--3-3-3--4-4-4---------------------|
A|---------------------------------------------------------------------------|
E|---------------------------------------------------------------------------|
Right before the chorous
e|--------------------------------------------------------------------------|
B|--------------------------------------------------------------------------|
G|1-1-1--3-3-3--4-4-4--3-3-3--1-1-1--3-3-3--4-4-4--3-3-3--------------------|
D|3-3-3--4-4-4--6-6-6--4-4-4--3-3-3--4-4-4--6-6-6--4-4-4--------------------|
A|--------------------------------------------------------------------------|
E|--------------------------------------------------------------------------|
Right after chorous
e|----4-4-4-x-----4-4-x--------4-4-4-x-----4-4-4-x--------------------------|
B|----4-4-4-x-----4-4-x--------4-4-4-x-----4-4-4-x--------------------------|
G|--4-4-4-4-x---3-3-3-x------1---1-1-x---3-4-4-4-x--------------------------|
D|6-6-6-------4-4-4--------3-----------4-4----------------------------------|
A|--------------------------------------------------------------------------|
E|--------------------------------------------------------------------------|

e|4-4-4~------4-4-4~-------4-4-4~------4-4-4~-------------------------------|
B|4-4-4~------4-4-4~-------4-4-4~------4-4-4~-------------------------------|
G|4-4-4~------3-3-3~-------1-1-1~------3-3-3~-------------------------------|
D|6-6-6~------4-4-4~-------3-3-3~------4-4-4~-------------------------------|
A|--------------------------------------------------------------------------|
E|--------------------------------------------------------------------------|
Suggest correction
comments
print report bad tab
4 comments total. Showing first comments.
0 reply
smobrien 60 Jan 18, 2008 12:40 PM

Wouldn't it make more sense to play it this way: {so you don't have to
move around all over the
place}

e|------------------------------------------------------|
B|-------------------------------------------------
-----|
G|------------------------------------------------------|
D|---------------------------------------------------
---|
A|-4--------6-4-------4-4--------6-4-------4------------|
E|---7-4-4------7-4-7------7-4-4-----7-4-7-------------
-|

0 reply
smobrien 60 Jan 18, 2008 12:41 PM

Wouldn't it make more sense to play it this way: {so you don't have to
move around all over the
place}

e|-------------------------------------------|
B|-------------------------------------------|
G|------------
-------------------------------|
D|-------------------------------------------|
A|-4--------6-4-------4-4--------6-4--
-----4-|
E|---7-4-4------7-4-7------7-4-4-----7-4-7---|

+2 reply
smobrien 60 Jan 18, 2008 12:42 PM

i give up...the first one looks right at least...just ignore the nasties

guest
You may want to rate the tab now too:
select rating
Wanna post a correction for this tab? Suggest correction