Oops, an error
Loading. Please wait.

Dont You Evah Tab

version 2
version 2

Whole song

3,228 views 12 this week
1 commentread comment
1 2 3 4 5
accurate
x 4
add to favorites
launch autoscroll
font size
0
reset
how to read this tab
guitar tuner
Autoscroll
slow
fast
+/-
esc
set tempo
stop
Help us to improve Ultimate-Guitar.com Take our survey!
×
Author
Difficulty
novice
                       This is an easy song, and it is great for
                       starters.


You can play this on a base or guitar, in the real song I think it is a base
   E --------------------------------------------------------------------|
   B --------------------------------------------------------------------|
   G --------------------------------------------------------------------|
   D -----------------1---------------------------------1----------------|
   A ---4---2-------------4---2-------2---4---2-------------4---2------2-|
   E -----------4-4---------------4---------------4-4---------------4----|
    You play this throughout the song, But after you play it 4 times, This comes in:
   E ------------------------------------------------------|
   B ------------------------------------------------------|
   G ---4---4---4---3---3---3---1---1---1------------------|
   D ---6---6---6---4---4---4---3---3---3------------------|
   A ------------------------------------------------------|
   E ------------------------------------------------------|

               You play this and that is the whole song.
Suggest correction
comments
print report bad tab
1 comment total.
0 reply
Q4trader 115 wrote on June 27 2015, 05:42 pm

D -----------------1-------------
A ---4---2-------------4---2-----
E -----------4-4---------------4-

guest
You may want to rate the tab now too:
select rating
Please do not post tabs as comments. Select "correction" instead!